  0
SECTION
  2
HEADER
  9
$ACADVER
  1
AC1009
  9
$INSBASE
 10
0.0
 20
0.0
 30
0.0
  9
$EXTMIN
 10
-0.0002470290448002
 20
-0.0000000000000213
 30
0.0
  9
$EXTMAX
 10
2205.8844235400002
 20
1332.285225842063
 30
0.0
  9
$LIMMIN
 10
0.0
 20
0.0
  9
$LIMMAX
 10
12.0
 20
9.0
  9
$ORTHOMODE
 70
     0
  9
$REGENMODE
 70
     1
  9
$FILLMODE
 70
     1
  9
$QTEXTMODE
 70
     0
  9
$MIRRTEXT
 70
     0
  9
$DRAGMODE
 70
     2
  9
$LTSCALE
 40
1.0
  9
$OSMODE
 70
   167
  9
$ATTMODE
 70
     1
  9
$TEXTSIZE
 40
0.2
  9
$TRACEWID
 40
0.05
  9
$TEXTSTYLE
  7
STANDARD
  9
$CLAYER
  8
0
  9
$CELTYPE
  6
CONTINUOUS
  9
$CECOLOR
 62
   256
  9
$DIMSCALE
 40
1.0
  9
$DIMASZ
 40
0.18
  9
$DIMEXO
 40
0.0625
  9
$DIMDLI
 40
0.38
  9
$DIMRND
 40
0.0
  9
$DIMDLE
 40
0.0
  9
$DIMEXE
 40
0.18
  9
$DIMTP
 40
0.0
  9
$DIMTM
 40
0.0
  9
$DIMTXT
 40
0.18
  9
$DIMCEN
 40
0.09
  9
$DIMTSZ
 40
0.0
  9
$DIMTOL
 70
     0
  9
$DIMLIM
 70
     0
  9
$DIMTIH
 70
     1
  9
$DIMTOH
 70
     1
  9
$DIMSE1
 70
     0
  9
$DIMSE2
 70
     0
  9
$DIMTAD
 70
     0
  9
$DIMZIN
 70
     0
  9
$DIMBLK
  1

  9
$DIMASO
 70
     1
  9
$DIMSHO
 70
     1
  9
$DIMPOST
  1

  9
$DIMAPOST
  1

  9
$DIMALT
 70
     0
  9
$DIMALTD
 70
     2
  9
$DIMALTF
 40
25.399999999999999
  9
$DIMLFAC
 40
1.0
  9
$DIMTOFL
 70
     0
  9
$DIMTVP
 40
0.0
  9
$DIMTIX
 70
     0
  9
$DIMSOXD
 70
     0
  9
$DIMSAH
 70
     0
  9
$DIMBLK1
  1

  9
$DIMBLK2
  1

  9
$DIMSTYLE
  2
STANDARD
  9
$DIMCLRD
 70
     0
  9
$DIMCLRE
 70
     0
  9
$DIMCLRT
 70
     0
  9
$DIMTFAC
 40
1.0
  9
$DIMGAP
 40
0.09
  9
$LUNITS
 70
     2
  9
$LUPREC
 70
     4
  9
$SKETCHINC
 40
0.1
  9
$FILLETRAD
 40
0.0
  9
$AUNITS
 70
     0
  9
$AUPREC
 70
     0
  9
$MENU
  1
.
  9
$ELEVATION
 40
0.0
  9
$PELEVATION
 40
0.0
  9
$THICKNESS
 40
0.0
  9
$LIMCHECK
 70
     0
  9
$BLIPMODE
 70
     0
  9
$CHAMFERA
 40
0.0
  9
$CHAMFERB
 40
0.0
  9
$SKPOLY
 70
     0
  9
$TDCREATE
 40
2455328.7710729521
  9
$TDUPDATE
 40
2455328.7712668171
  9
$TDINDWG
 40
0.0001947685
  9
$TDUSRTIMER
 40
0.0001947685
  9
$USRTIMER
 70
     1
  9
$ANGBASE
 50
0.0
  9
$ANGDIR
 70
     0
  9
$PDMODE
 70
     0
  9
$PDSIZE
 40
0.0
  9
$PLINEWID
 40
0.0
  9
$COORDS
 70
     1
  9
$SPLFRAME
 70
     0
  9
$SPLINETYPE
 70
     6
  9
$SPLINESEGS
 70
     8
  9
$ATTDIA
 70
     0
  9
$ATTREQ
 70
     1
  9
$HANDLING
 70
     1
  9
$HANDSEED
  5
1638
  9
$SURFTAB1
 70
     6
  9
$SURFTAB2
 70
     6
  9
$SURFTYPE
 70
     6
  9
$SURFU
 70
     6
  9
$SURFV
 70
     6
  9
$UCSNAME
  2

  9
$UCSORG
 10
0.0
 20
0.0
 30
0.0
  9
$UCSXDIR
 10
1.0
 20
0.0
 30
0.0
  9
$UCSYDIR
 10
0.0
 20
1.0
 30
0.0
  9
$PUCSNAME
  2

  9
$PUCSORG
 10
0.0
 20
0.0
 30
0.0
  9
$PUCSXDIR
 10
1.0
 20
0.0
 30
0.0
  9
$PUCSYDIR
 10
0.0
 20
1.0
 30
0.0
  9
$USERI1
 70
     0
  9
$USERI2
 70
     0
  9
$USERI3
 70
     0
  9
$USERI4
 70
     0
  9
$USERI5
 70
     0
  9
$USERR1
 40
0.0
  9
$USERR2
 40
0.0
  9
$USERR3
 40
0.0
  9
$USERR4
 40
0.0
  9
$USERR5
 40
0.0
  9
$WORLDVIEW
 70
     1
  9
$SHADEDGE
 70
     3
  9
$SHADEDIF
 70
    70
  9
$TILEMODE
 70
     1
  9
$MAXACTVP
 70
    64
  9
$PLIMCHECK
 70
     0
  9
$PEXTMIN
 10
1.0000000000000000E+020
 20
1.0000000000000000E+020
 30
1.0000000000000000E+020
  9
$PEXTMAX
 10
-1.0000000000000000E+020
 20
-1.0000000000000000E+020
 30
-1.0000000000000000E+020
  9
$PLIMMIN
 10
0.0
 20
0.0
  9
$PLIMMAX
 10
12.0
 20
9.0
  9
$UNITMODE
 70
     0
  9
$VISRETAIN
 70
     1
  9
$PLINEGEN
 70
     0
  9
$PSLTSCALE
 70
     1
  0
ENDSEC
  0
SECTION
  2
TABLES
  0
TABLE
  2
VPORT
 70
     1
  0
VPORT
  2
*ACTIVE
 70
     0
 10
0.0
 20
0.0
 11
1.0
 21
1.0
 12
7.8038793103448274
 22
4.5
 13
0.0
 23
0.0
 14
1.0
 24
1.0
 15
0.0
 25
0.0
 16
0.0
 26
0.0
 36
1.0
 17
0.0
 27
0.0
 37
0.0
 40
9.0
 41
1.7341954022988499
 42
50.0
 43
0.0
 44
0.0
 50
0.0
 51
0.0
 71
     0
 72
   100
 73
     1
 74
     1
 75
     0
 76
     0
 77
     0
 78
     0
  0
ENDTAB
  0
TABLE
  2
LTYPE
 70
     1
  0
LTYPE
  2
CONTINUOUS
 70
     0
  3
Solid line
 72
    65
 73
     0
 40
0.0
  0
ENDTAB
  0
TABLE
  2
LAYER
 70
     3
  0
LAYER
  2
0
 70
     0
 62
     7
  6
CONTINUOUS
  0
LAYER
  2
WHITE
 70
     0
 62
     1
  6
CONTINUOUS
  0
LAYER
  2
DEFAULT_LAYER
 70
     0
 62
     1
  6
CONTINUOUS
  0
ENDTAB
  0
TABLE
  2
STYLE
 70
     2
  0
STYLE
  2
STANDARD
 70
     0
 40
0.0
 41
1.0
 50
0.0
 71
     0
 42
0.2
  3
txt
  4

  0
STYLE
  2
ANNOTATIVE
 70
     0
 40
0.0
 41
1.0
 50
0.0
 71
     0
 42
0.2
  3
txt
  4

  0
ENDTAB
  0
TABLE
  2
VIEW
 70
     0
  0
ENDTAB
  0
TABLE
  2
UCS
 70
     0
  0
ENDTAB
  0
TABLE
  2
APPID
 70
     3
  0
APPID
  2
ACAD
 70
     0
  0
APPID
  2
ACADANNOTATIVE
 70
     0
  0
APPID
  2
ACAD_MLEADERVER
 70
     0
  0
ENDTAB
  0
TABLE
  2
DIMSTYLE
 70
     2
  0
DIMSTYLE
  2
STANDARD
 70
     0
  3

  4

  5

  6

  7

 40
1.0
 41
0.18
 42
0.0625
 43
0.38
 44
0.18
 45
0.0
 46
0.0
 47
0.0
 48
0.0
140
0.18
141
0.09
142
0.0
143
25.399999999999999
144
1.0
145
0.0
146
1.0
147
0.09
 71
     0
 72
     0
 73
     1
 74
     1
 75
     0
 76
     0
 77
     0
 78
     0
170
     0
171
     2
172
     0
173
     0
174
     0
175
     0
176
     0
177
     0
178
     0
  0
DIMSTYLE
  2
ANNOTATIVE
 70
     0
  3

  4

  5

  6

  7

 40
1.0
 41
0.18
 42
0.0625
 43
0.38
 44
0.18
 45
0.0
 46
0.0
 47
0.0
 48
0.0
140
0.18
141
0.09
142
0.0
143
25.399999999999999
144
1.0
145
0.0
146
1.0
147
0.09
 71
     0
 72
     0
 73
     1
 74
     1
 75
     0
 76
     0
 77
     0
 78
     0
170
     0
171
     2
172
     0
173
     0
174
     0
175
     0
176
     0
177
     0
178
     0
  0
ENDTAB
  0
ENDSEC
  0
SECTION
  2
BLOCKS
  0
BLOCK
  8
0
  2
$MODEL_SPACE
 70
     0
 10
0.0
 20
0.0
 30
0.0
  3
$MODEL_SPACE
  1

  0
ENDBLK
  5
76
  8
0
  0
BLOCK
 67
     1
  8
0
  2
$PAPER_SPACE
 70
     0
 10
0.0
 20
0.0
 30
0.0
  3
$PAPER_SPACE
  1

  0
ENDBLK
  5
72
 67
     1
  8
0
  0
ENDSEC
  0
SECTION
  2
ENTITIES
  0
POLYLINE
  5
7C
  8
WHITE
 66
     1
 10
0.0
 20
0.0
 30
0.0
 70
     1
  0
VERTEX
  5
B88
  8
WHITE
 10
69.493347825000001
 20
48.906055950000002
 30
0.0
 42
0.15627193
  0
VERTEX
  5
B89
  8
WHITE
 10
61.25536567000001
 20
45.950414579999993
 30
0.0
  0
VERTEX
  5
B8A
  8
WHITE
 10
54.76312334
 20
43.371602609999997
 30
0.0
 42
-0.24854882
  0
VERTEX
  5
B8B
  8
WHITE
 10
53.15420108
 20
43.547871675000003
 30
0.0
 42
-0.24854882
  0
VERTEX
  5
B8C
  8
WHITE
 10
52.396436145000003
 20
44.978079329999993
 30
0.0
  0
VERTEX
  5
B8D
  8
WHITE
 10
52.396436145000003
 20
63.397615469999998
 30
0.0
 42
0.41421356
  0
VERTEX
  5
B8E
  8
WHITE
 10
52.050721860000003
 20
63.743329754999991
 30
0.0
  0
VERTEX
  5
B8F
  8
WHITE
 10
49.71715042999999
 20
63.743329754999991
 30
0.0
 42
0.41421356
  0
VERTEX
  5
B90
  8
WHITE
 10
49.371436144999997
 20
63.397615469999998
 30
0.0
  0
VERTEX
  5
B91
  8
WHITE
 10
49.371436144999997
 20
44.737762955000001
 30
0.0
 42
-0.24854887
  0
VERTEX
  5
B92
  8
WHITE
 10
48.61367096
 20
43.307555135000001
 30
0.0
 42
-0.24854887
  0
VERTEX
  5
B93
  8
WHITE
 10
47.004748745000001
 20
43.131285714999997
 30
0.0
  0
VERTEX
  5
B94
  8
WHITE
 10
39.907505845000003
 20
45.95041458499999
 30
0.0
 42
0.2104586
  0
VERTEX
  5
B95
  8
WHITE
 10
28.675323495000001
 20
48.694958370000002
 30
0.0
 42
0.2104586
  0
VERTEX
  5
B96
  8
WHITE
 10
19.067943039999999
 20
42.261241439999992
 30
0.0
 42
0.23593085
  0
VERTEX
  5
B97
  8
WHITE
 10
12.769862659999999
 20
4.7620342649999987
 30
0.0
 42
-0.41421356
  0
VERTEX
  5
B98
  8
WHITE
 10
8.0078278950000001
 20
0.0
 30
0.0
 42
-0.41421356
  0
VERTEX
  5
B99
  8
WHITE
 10
3.245793739999999
 20
4.762034804999999
 30
0.0
 42
-0.18950537
  0
VERTEX
  5
B9A
  8
WHITE
 10
8.693788735
 20
64.172061970000001
 30
0.0
 42
-0.35920074
  0
VERTEX
  5
B9B
  8
WHITE
 10
12.518464565
 20
65.857562189999996
 30
0.0
 42
0.27424327
  0
VERTEX
  5
B9C
  8
WHITE
 10
34.412825079999998
 20
71.698704879999994
 30
0.0
 42
0.27424327
  0
VERTEX
  5
B9D
  8
WHITE
 10
39.78667204500001
 20
93.712421724999999
 30
0.0
 42
-0.23766538
  0
VERTEX
  5
B9E
  8
WHITE
 10
39.918844024999999
 20
94.478822295000015
 30
0.0
 42
-0.23766538
  0
VERTEX
  5
B9F
  8
WHITE
 10
40.613397374999991
 20
94.828729315000004
 30
0.0
  0
VERTEX
  5
BA0
  8
WHITE
 10
60.549474914999998
 20
94.828729315000004
 30
0.0
 42
-0.23766538
  0
VERTEX
  5
BA1
  8
WHITE
 10
61.24402826499999
 20
94.478822295000015
 30
0.0
 42
-0.23766538
  0
VERTEX
  5
BA2
  8
WHITE
 10
61.376199825
 20
93.712421844999994
 30
0.0
 42
0.27424327
  0
VERTEX
  5
BA3
  8
WHITE
 10
66.750047210000005
 20
71.698704879999994
 30
0.0
 42
0.27424327
  0
VERTEX
  5
BA4
  8
WHITE
 10
88.644408534999997
 20
65.857559330000001
 30
0.0
 42
-0.35920068
  0
VERTEX
  5
BA5
  8
WHITE
 10
92.469080669999997
 20
64.172061369999994
 30
0.0
 42
-0.18950537
  0
VERTEX
  5
BA6
  8
WHITE
 10
97.917075199999999
 20
4.7620347650000001
 30
0.0
 42
-0.41421356
  0
VERTEX
  5
BA7
  8
WHITE
 10
93.155040935000017
 20
0.0
 30
0.0
 42
-0.41421356
  0
VERTEX
  5
BA8
  8
WHITE
 10
88.393006174999996
 20
4.7620342649999987
 30
0.0
 42
0.23593085
  0
VERTEX
  5
BA9
  8
WHITE
 10
82.094927960000007
 20
42.261240839999999
 30
0.0
 42
0.24019602
  0
VERTEX
  5
BAA
  8
WHITE
 10
70.876205139999996
 20
48.886988164999991
 30
0.0
  0
VERTEX
  5
BAB
  8
WHITE
 10
70.530738685000003
 20
48.904261490000003
 30
0.0
  0
VERTEX
  5
BAC
  8
WHITE
 10
70.185006430000001
 20
48.913198614999999
 30
0.0
  0
VERTEX
  5
BAD
  8
WHITE
 10
69.839159194999993
 20
48.913797459999998
 30
0.0
  0
VERTEX
  5
BAE
  8
WHITE
 10
69.493347825000001
 20
48.906055950000002
 30
0.0
  0
SEQEND
  5
BAF
  8
WHITE
  0
POLYLINE
  5
A5
  8
WHITE
 66
     1
 10
0.0
 20
0.0
 30
0.0
 70
     1
  0
VERTEX
  5
BB0
  8
WHITE
 10
52.601559330000001
 20
476.36475256499989
 30
0.0
 42
0.26495469
  0
VERTEX
  5
BB1
  8
WHITE
 10
40.64454473499999
 20
432.05039792999992
 30
0.0
 42
-0.12983323
  0
VERTEX
  5
BB2
  8
WHITE
 10
40.64122532999999
 20
431.16758122499988
 30
0.0
 42
-0.41960951
  0
VERTEX
  5
BB3
  8
WHITE
 10
22.396349730000001
 20
420.86080126000002
 30
0.0
 42
-0.35146003
  0
VERTEX
  5
BB4
  8
WHITE
 10
20.144796275000001
 20
423.41143082999992
 30
0.0
 42
-0.35146003
  0
VERTEX
  5
BB5
  8
WHITE
 10
22.145630870000002
 20
426.16313305
 30
0.0
 42
0.21289362
  0
VERTEX
  5
BB6
  8
WHITE
 10
27.361679075000001
 20
441.57158213000002
 30
0.0
 42
0.25049293
  0
VERTEX
  5
BB7
  8
WHITE
 10
3.2607782900000002
 20
489.30437833500002
 30
0.0
 42
-0.38845421
  0
VERTEX
  5
BB8
  8
WHITE
 10
3.0090623149999991
 20
490.44377111499989
 30
0.0
  0
VERTEX
  5
BB9
  8
WHITE
 10
8.3968447699999995
 20
499.775681835
 30
0.0
 42
-0.41421356
  0
VERTEX
  5
BBA
  8
WHITE
 10
8.8690992299999998
 20
499.90222184499999
 30
0.0
  0
VERTEX
  5
BBB
  8
WHITE
 10
25.892898580000001
 20
490.0735265699999
 30
0.0
 42
0.4142134900000001
  0
VERTEX
  5
BBC
  8
WHITE
 10
26.365152999999999
 20
490.20006674500002
 30
0.0
  0
VERTEX
  5
BBD
  8
WHITE
 10
27.531938714999999
 20
492.22100010000003
 30
0.0
 42
0.4142136200000001
  0
VERTEX
  5
BBE
  8
WHITE
 10
27.405398644999998
 20
492.69325445499987
 30
0.0
  0
VERTEX
  5
BBF
  8
WHITE
 10
10.381599230000001
 20
502.52194948999988
 30
0.0
 42
-0.41421342
  0
VERTEX
  5
BC0
  8
WHITE
 10
10.25505916
 20
502.9942039849999
 30
0.0
  0
VERTEX
  5
BC1
  8
WHITE
 10
15.913643990000001
 20
512.79516302499997
 30
0.0
 42
-0.40153162
  0
VERTEX
  5
BC2
  8
WHITE
 10
17.061328485000001
 20
513.12959384999999
 30
0.0
 42
0.09755598
  0
VERTEX
  5
BC3
  8
WHITE
 10
44.20231614499999
 20
505.15996885999988
 30
0.0
 42
0.08650108
  0
VERTEX
  5
BC4
  8
WHITE
 10
110.376551565
 20
517.79327276000004
 30
0.0
 42
0.15949013
  0
VERTEX
  5
BC5
  8
WHITE
 10
116.76327624
 20
522.57823508499985
 30
0.0
 42
-0.28836966
  0
VERTEX
  5
BC6
  8
WHITE
 10
118.460333525
 20
523.29134725999995
 30
0.0
 42
-0.21076198
  0
VERTEX
  5
BC7
  8
WHITE
 10
123.12854369999999
 20
520.23856706000004
 30
0.0
 42
-0.21076198
  0
VERTEX
  5
BC8
  8
WHITE
 10
124.02137689
 20
514.73270648000005
 30
0.0
 42
-0.09389412
  0
VERTEX
  5
BC9
  8
WHITE
 10
116.265381725
 20
495.36934362
 30
0.0
 42
-0.28247927
  0
VERTEX
  5
BCA
  8
WHITE
 10
114.63819223500001
 20
494.57937755
 30
0.0
 42
0.19035863
  0
VERTEX
  5
BCB
  8
WHITE
 10
53.692463650000001
 20
477.21456245000002
 30
0.0
  0
VERTEX
  5
BCC
  8
WHITE
 10
53.413064775000002
 20
477.00929565500002
 30
0.0
  0
VERTEX
  5
BCD
  8
WHITE
 10
53.131055465000003
 20
476.806735715
 30
0.0
  0
VERTEX
  5
BCE
  8
WHITE
 10
52.857024170000003
 20
476.59563666999998
 30
0.0
  0
VERTEX
  5
BCF
  8
WHITE
 10
52.726309165000004
 20
476.48337062000002
 30
0.0
  0
VERTEX
  5
BD0
  8
WHITE
 10
52.601559330000001
 20
476.36475256499989
 30
0.0
  0
SEQEND
  5
BD1
  8
WHITE
  0
POLYLINE
  5
C8
  8
WHITE
 66
     1
 10
0.0
 20
0.0
 30
0.0
 70
     1
  0
VERTEX
  5
BD2
  8
WHITE
 10
68.459963200000004
 20
106.29030690499999
 30
0.0
 42
-0.04968492
  0
VERTEX
  5
BD3
  8
WHITE
 10
51.958506730000003
 20
104.16504148
 30
0.0
 42
-0.20265735
  0
VERTEX
  5
BD4
  8
WHITE
 10
51.331340629999993
 20
104.409090105
 30
0.0
 42
-0.20265735
  0
VERTEX
  5
BD5
  8
WHITE
 10
51.069334075
 20
105.028968815
 30
0.0
  0
VERTEX
  5
BD6
  8
WHITE
 10
51.069334075
 20
119.35556932999999
 30
0.0
 42
0.41421356
  0
VERTEX
  5
BD7
  8
WHITE
 10
50.723619790000001
 20
119.70128361499999
 30
0.0
  0
VERTEX
  5
BD8
  8
WHITE
 10
48.390048360000002
 20
119.70128361499999
 30
0.0
 42
0.41421356
  0
VERTEX
  5
BD9
  8
WHITE
 10
48.044334075000002
 20
119.35556932999999
 30
0.0
  0
VERTEX
  5
BDA
  8
WHITE
 10
48.044334075000002
 20
105.013745285
 30
0.0
 42
-0.20170938
  0
VERTEX
  5
BDB
  8
WHITE
 10
47.784581690000003
 20
104.39606474999999
 30
0.0
 42
-0.20170938
  0
VERTEX
  5
BDC
  8
WHITE
 10
47.16145685499999
 20
104.149660595
 30
0.0
 42
-0.06979728
  0
VERTEX
  5
BDD
  8
WHITE
 10
24.145769515000001
 20
107.884738755
 30
0.0
 42
0.39205261
  0
VERTEX
  5
BDE
  8
WHITE
 10
15.67081808
 20
103.82194432999999
 30
0.0
 42
0.16258273
  0
VERTEX
  5
BDF
  8
WHITE
 10
13.862445605
 20
70.462366959999997
 30
0.0
 42
-0.31684491
  0
VERTEX
  5
BE0
  8
WHITE
 10
13.727602185
 20
70.087717260000005
 30
0.0
 42
-0.31684491
  0
VERTEX
  5
BE1
  8
WHITE
 10
13.329425179999999
 20
70.088531979999999
 30
0.0
 42
-0.37039815
  0
VERTEX
  5
BE2
  8
WHITE
 10
3.442358599999999
 20
82.057128245000001
 30
0.0
 42
-0.11553566
  0
VERTEX
  5
BE3
  8
WHITE
 10
10.376658340000001
 20
117.33543609
 30
0.0
 42
-0.39616135
  0
VERTEX
  5
BE4
  8
WHITE
 10
12.56441253
 20
118.24054371
 30
0.0
 42
0.29209503
  0
VERTEX
  5
BE5
  8
WHITE
 10
32.911071360000001
 20
122.497899305
 30
0.0
 42
0.29209503
  0
VERTEX
  5
BE6
  8
WHITE
 10
37.605078120000002
 20
142.74827948500001
 30
0.0
 42
-0.24357737
  0
VERTEX
  5
BE7
  8
WHITE
 10
37.713836944999997
 20
143.53572359
 30
0.0
 42
-0.24357737
  0
VERTEX
  5
BE8
  8
WHITE
 10
38.419714044999999
 20
143.90128361500001
 30
0.0
  0
VERTEX
  5
BE9
  8
WHITE
 10
60.088952374999991
 20
143.90128361500001
 30
0.0
 42
-0.24357737
  0
VERTEX
  5
BEA
  8
WHITE
 10
60.794829475
 20
143.53572359
 30
0.0
 42
-0.24357737
  0
VERTEX
  5
BEB
  8
WHITE
 10
60.90358818
 20
142.74827952000001
 30
0.0
 42
0.29209503
  0
VERTEX
  5
BEC
  8
WHITE
 10
65.597595060000003
 20
122.497899305
 30
0.0
 42
0.29209503
  0
VERTEX
  5
BED
  8
WHITE
 10
85.944253799999998
 20
118.24054391999999
 30
0.0
 42
-0.39616162
  0
VERTEX
  5
BEE
  8
WHITE
 10
88.132011239999997
 20
117.335436755
 30
0.0
 42
-0.11553566
  0
VERTEX
  5
BEF
  8
WHITE
 10
95.066309625000002
 20
82.057128280000015
 30
0.0
 42
-0.37039815
  0
VERTEX
  5
BF0
  8
WHITE
 10
85.179241869999998
 20
70.088529800000003
 30
0.0
 42
-0.31684417
  0
VERTEX
  5
BF1
  8
WHITE
 10
84.781065569999996
 20
70.087717534999996
 30
0.0
 42
-0.31684417
  0
VERTEX
  5
BF2
  8
WHITE
 10
84.646220809999988
 20
70.462366959999997
 30
0.0
 42
0.16258273
  0
VERTEX
  5
BF3
  8
WHITE
 10
82.837847634999989
 20
103.82194437
 30
0.0
 42
0.39205261
  0
VERTEX
  5
BF4
  8
WHITE
 10
74.362896820000003
 20
107.88473866
 30
0.0
 42
-0.01398274
  0
VERTEX
  5
BF5
  8
WHITE
 10
69.842819704999997
 20
106.62263740500001
 30
0.0
  0
VERTEX
  5
BF6
  8
WHITE
 10
68.459963200000004
 20
106.29030690499999
 30
0.0
  0
SEQEND
  5
BF7
  8
WHITE
  0
POLYLINE
  5
EF
  8
WHITE
 66
     1
 10
0.0
 20
0.0
 30
0.0
 70
     1
  0
VERTEX
  5
BF8
  8
WHITE
 10
68.008005139999995
 20
156.72434291499999
 30
0.0
 42
-0.04774206
  0
VERTEX
  5
BF9
  8
WHITE
 10
52.325588005
 20
154.76559912499999
 30
0.0
 42
-0.20266354
  0
VERTEX
  5
BFA
  8
WHITE
 10
52.074711024999999
 20
154.86321237000001
 30
0.0
 42
-0.20266354
  0
VERTEX
  5
BFB
  8
WHITE
 10
51.969902500000003
 20
155.111169585
 30
0.0
  0
VERTEX
  5
BFC
  8
WHITE
 10
51.969902500000003
 20
168.25602533
 30
0.0
 42
0.41421342
  0
VERTEX
  5
BFD
  8
WHITE
 10
51.624188214999997
 20
168.60173961500001
 30
0.0
  0
VERTEX
  5
BFE
  8
WHITE
 10
49.290616790000001
 20
168.60173961500001
 30
0.0
 42
0.4142135500000001
  0
VERTEX
  5
BFF
  8
WHITE
 10
48.944902499999998
 20
168.25602533
 30
0.0
  0
VERTEX
  5
C00
  8
WHITE
 10
48.944904229999999
 20
155.13084591500001
 30
0.0
 42
-0.20361716
  0
VERTEX
  5
C01
  8
WHITE
 10
48.839185215000001
 20
154.88200660499999
 30
0.0
 42
-0.20361716
  0
VERTEX
  5
C02
  8
WHITE
 10
48.586685375000002
 20
154.78535679999999
 30
0.0
 42
-0.06416246
  0
VERTEX
  5
C03
  8
WHITE
 10
27.67116163
 20
158.25352903500001
 30
0.0
 42
0.27647108
  0
VERTEX
  5
C04
  8
WHITE
 10
20.783299299999999
 20
156.51680421500001
 30
0.0
 42
0.3967854499999999
  0
VERTEX
  5
C05
  8
WHITE
 10
20.228231605000001
 20
137.29631911000001
 30
0.0
 42
-0.33406045
  0
VERTEX
  5
C06
  8
WHITE
 10
18.728796594999999
 20
134.73417148999999
 30
0.0
 42
-0.33406045
  0
VERTEX
  5
C07
  8
WHITE
 10
15.85119066
 20
135.46375983999999
 30
0.0
 42
-0.36802766
  0
VERTEX
  5
C08
  8
WHITE
 10
15.441736365000001
 20
168.30148796500001
 30
0.0
 42
-0.29165933
  0
VERTEX
  5
C09
  8
WHITE
 10
18.096289415000001
 20
169.152992555
 30
0.0
 42
0.24639761
  0
VERTEX
  5
C0A
  8
WHITE
 10
34.351848734999997
 20
172.89058213000001
 30
0.0
 42
0.24639761
  0
VERTEX
  5
C0B
  8
WHITE
 10
40.514773335000001
 20
188.38997322
 30
0.0
 42
-0.21255586
  0
VERTEX
  5
C0C
  8
WHITE
 10
40.73203698999999
 20
189.0586328
 30
0.0
 42
-0.21255586
  0
VERTEX
  5
C0D
  8
WHITE
 10
41.374324889999997
 20
189.344596755
 30
0.0
  0
VERTEX
  5
C0E
  8
WHITE
 10
60.145480159999991
 20
189.344596755
 30
0.0
 42
-0.21255585
  0
VERTEX
  5
C0F
  8
WHITE
 10
60.787768030000002
 20
189.05863278000001
 30
0.0
 42
-0.21255585
  0
VERTEX
  5
C10
  8
WHITE
 10
61.005030929999997
 20
188.38997330500001
 30
0.0
 42
0.24639761
  0
VERTEX
  5
C11
  8
WHITE
 10
67.167956270000005
 20
172.89058213000001
 30
0.0
 42
0.24639761
  0
VERTEX
  5
C12
  8
WHITE
 10
83.423515434999985
 20
169.15299309
 30
0.0
 42
-0.29165916
  0
VERTEX
  5
C13
  8
WHITE
 10
86.078068235000003
 20
168.30148908999999
 30
0.0
 42
-0.36802765
  0
VERTEX
  5
C14
  8
WHITE
 10
85.668613620000002
 20
135.46375959
 30
0.0
 42
-0.33406041
  0
VERTEX
  5
C15
  8
WHITE
 10
82.791007425000004
 20
134.73417003
 30
0.0
 42
-0.33406041
  0
VERTEX
  5
C16
  8
WHITE
 10
81.291571430000005
 20
137.296319525
 30
0.0
 42
0.39678543
  0
VERTEX
  5
C17
  8
WHITE
 10
80.736504319999995
 20
156.51680386999999
 30
0.0
 42
0.27647105
  0
VERTEX
  5
C18
  8
WHITE
 10
73.848643374999995
 20
158.25352903500001
 30
0.0
 42
-0.01403236
  0
VERTEX
  5
C19
  8
WHITE
 10
69.355548720000002
 20
157.03703060999999
 30
0.0
  0
VERTEX
  5
C1A
  8
WHITE
 10
68.008005139999995
 20
156.72434291499999
 30
0.0
  0
SEQEND
  5
C1B
  8
WHITE
  0
POLYLINE
  5
114
  8
WHITE
 66
     1
 10
0.0
 20
0.0
 30
0.0
 70
     1
  0
VERTEX
  5
C1C
  8
WHITE
 10
52.680658025
 20
385.529072455
 30
0.0
 42
0.1941832
  0
VERTEX
  5
C1D
  8
WHITE
 10
41.352651885
 20
386.87834500000002
 30
0.0
 42
-0.23359455
  0
VERTEX
  5
C1E
  8
WHITE
 10
41.052079505000002
 20
386.93737412000002
 30
0.0
 42
-0.23359455
  0
VERTEX
  5
C1F
  8
WHITE
 10
40.916377914999998
 20
387.21198845499998
 30
0.0
  0
VERTEX
  5
C20
  8
WHITE
 10
40.916377914999998
 20
394.74404485500003
 30
0.0
 42
0.41421354
  0
VERTEX
  5
C21
  8
WHITE
 10
40.570663629999991
 20
395.08975914500002
 30
0.0
  0
VERTEX
  5
C22
  8
WHITE
 10
38.237092199999999
 20
395.08975914500002
 30
0.0
 42
0.4142135500000001
  0
VERTEX
  5
C23
  8
WHITE
 10
37.891377915
 20
394.74404485500003
 30
0.0
  0
VERTEX
  5
C24
  8
WHITE
 10
37.891377915
 20
387.36327463499998
 30
0.0
 42
-0.22832615
  0
VERTEX
  5
C25
  8
WHITE
 10
37.761127899999998
 20
387.09291662999999
 30
0.0
 42
-0.22832615
  0
VERTEX
  5
C26
  8
WHITE
 10
37.468522784999998
 20
387.026275865
 30
0.0
 42
0.23377431
  0
VERTEX
  5
C27
  8
WHITE
 10
24.324280389999998
 20
383.88935817499998
 30
0.0
 42
0.23377431
  0
VERTEX
  5
C28
  8
WHITE
 10
18.839678729999999
 20
371.53903384
 30
0.0
 42
-0.28964557
  0
VERTEX
  5
C29
  8
WHITE
 10
18.655266524999998
 20
371.21880070999998
 30
0.0
 42
-0.28964557
  0
VERTEX
  5
C2A
  8
WHITE
 10
18.286893790000001
 20
371.24811431000001
 30
0.0
 42
-0.20763556
  0
VERTEX
  5
C2B
  8
WHITE
 10
11.363736080000001
 20
383.39393724000001
 30
0.0
 42
-0.20763556
  0
VERTEX
  5
C2C
  8
WHITE
 10
15.50637622
 20
396.74645235999998
 30
0.0
 42
0.38778448
  0
VERTEX
  5
C2D
  8
WHITE
 10
31.974396525
 20
414.0672563249999
 30
0.0
 42
-0.40827972
  0
VERTEX
  5
C2E
  8
WHITE
 10
33.702613745000001
 20
415.76073709999997
 30
0.0
  0
VERTEX
  5
C2F
  8
WHITE
 10
45.710142179999998
 20
415.76073709999997
 30
0.0
 42
-0.40827972
  0
VERTEX
  5
C30
  8
WHITE
 10
47.43835730499999
 20
414.06725632999991
 30
0.0
 42
0.38778448
  0
VERTEX
  5
C31
  8
WHITE
 10
63.906376569999999
 20
396.74645122999999
 30
0.0
 42
-0.20763556
  0
VERTEX
  5
C32
  8
WHITE
 10
68.049016304999995
 20
383.39393742499999
 30
0.0
 42
-0.20763556
  0
VERTEX
  5
C33
  8
WHITE
 10
61.125858305000001
 20
371.24811699499998
 30
0.0
 42
-0.2896456
  0
VERTEX
  5
C34
  8
WHITE
 10
60.757488350000003
 20
371.21880225500001
 30
0.0
 42
-0.2896456
  0
VERTEX
  5
C35
  8
WHITE
 10
60.573076610000001
 20
371.53903386000002
 30
0.0
 42
0.26038212
  0
VERTEX
  5
C36
  8
WHITE
 10
53.865928025000002
 20
384.80611341999997
 30
0.0
  0
VERTEX
  5
C37
  8
WHITE
 10
53.575845469999997
 20
384.99694542499998
 30
0.0
  0
VERTEX
  5
C38
  8
WHITE
 10
53.281529370000001
 20
385.181096185
 30
0.0
  0
VERTEX
  5
C39
  8
WHITE
 10
52.98309509500001
 20
385.35849531999997
 30
0.0
  0
VERTEX
  5
C3A
  8
WHITE
 10
52.680658025
 20
385.529072455
 30
0.0
  0
SEQEND
  5
C3B
  8
WHITE
  0
POLYLINE
  5
135
  8
WHITE
 66
     1
 10
0.0
 20
0.0
 30
0.0
 70
     1
  0
VERTEX
  5
C3C
  8
WHITE
 10
50.171633419999992
 20
294.45251479500001
 30
0.0
 42
0.06894522
  0
VERTEX
  5
C3D
  8
WHITE
 10
43.920213965000002
 20
297.46515793999998
 30
0.0
 42
-0.32568209
  0
VERTEX
  5
C3E
  8
WHITE
 10
43.680424129999999
 20
297.79424512999998
 30
0.0
  0
VERTEX
  5
C3F
  8
WHITE
 10
43.680424129999999
 20
306.50596164500001
 30
0.0
 42
0.41421354
  0
VERTEX
  5
C40
  8
WHITE
 10
43.334709869999998
 20
306.85167593
 30
0.0
  0
VERTEX
  5
C41
  8
WHITE
 10
41.001138414999993
 20
306.85167593
 30
0.0
 42
0.41421356
  0
VERTEX
  5
C42
  8
WHITE
 10
40.65542413
 20
306.50596164500001
 30
0.0
  0
VERTEX
  5
C43
  8
WHITE
 10
40.65542413
 20
297.59116391499998
 30
0.0
 42
-0.31881019
  0
VERTEX
  5
C44
  8
WHITE
 10
40.423795435000002
 20
297.26481618000003
 30
0.0
 42
0.14420352
  0
VERTEX
  5
C45
  8
WHITE
 10
28.8192503
 20
288.93220761999999
 30
0.0
 42
-0.08927018
  0
VERTEX
  5
C46
  8
WHITE
 10
28.363384929999999
 20
288.5233422
 30
0.0
 42
-0.32610402
  0
VERTEX
  5
C47
  8
WHITE
 10
16.63709167
 20
289.43311040999998
 30
0.0
 42
-0.32610402
  0
VERTEX
  5
C48
  8
WHITE
 10
13.92770851
 20
300.87832292500002
 30
0.0
 42
-0.22936843
  0
VERTEX
  5
C49
  8
WHITE
 10
16.189459525
 20
302.86943163000001
 30
0.0
 42
0.34249132
  0
VERTEX
  5
C4A
  8
WHITE
 10
33.927199825000002
 20
326.69569212499999
 30
0.0
 42
-0.20151154
  0
VERTEX
  5
C4B
  8
WHITE
 10
34.420984584999999
 20
327.94025313999998
 30
0.0
 42
-0.20151154
  0
VERTEX
  5
C4C
  8
WHITE
 10
35.655425829999999
 20
328.45881878500001
 30
0.0
  0
VERTEX
  5
C4D
  8
WHITE
 10
49.28542242999999
 20
328.45881878500001
 30
0.0
 42
-0.20151154
  0
VERTEX
  5
C4E
  8
WHITE
 10
50.519863675000003
 20
327.94025313999998
 30
0.0
 42
-0.20151154
  0
VERTEX
  5
C4F
  8
WHITE
 10
51.013647825
 20
326.69569212499999
 30
0.0
 42
0.34249132
  0
VERTEX
  5
C50
  8
WHITE
 10
68.751388660000003
 20
302.86943123999998
 30
0.0
 42
-0.2293685
  0
VERTEX
  5
C51
  8
WHITE
 10
71.013139335000005
 20
300.87832273999999
 30
0.0
 42
-0.32610402
  0
VERTEX
  5
C52
  8
WHITE
 10
68.303756590000006
 20
289.43311040999998
 30
0.0
 42
-0.32610402
  0
VERTEX
  5
C53
  8
WHITE
 10
56.577463014999999
 20
288.52334167499998
 30
0.0
 42
-0.08927018
  0
VERTEX
  5
C54
  8
WHITE
 10
56.121597620000003
 20
288.93220736000001
 30
0.0
 42
0.06702221
  0
VERTEX
  5
C55
  8
WHITE
 10
51.302447854999997
 20
293.655224035
 30
0.0
  0
VERTEX
  5
C56
  8
WHITE
 10
50.742495755
 20
294.061606525
 30
0.0
  0
VERTEX
  5
C57
  8
WHITE
 10
50.171633419999992
 20
294.45251479500001
 30
0.0
  0
SEQEND
  5
C58
  8
WHITE
  0
POLYLINE
  5
153
  8
WHITE
 66
     1
 10
0.0
 20
0.0
 30
0.0
 70
     1
  0
VERTEX
  5
C59
  8
WHITE
 10
69.748863850000006
 20
196.47601796999999
 30
0.0
 42
0.16175091
  0
VERTEX
  5
C5A
  8
WHITE
 10
59.606694775000001
 20
201.75805763
 30
0.0
  0
VERTEX
  5
C5B
  8
WHITE
 10
51.546371364999992
 20
201.75805589999999
 30
0.0
 42
-0.41421354
  0
VERTEX
  5
C5C
  8
WHITE
 10
51.200657100000001
 20
202.103770185
 30
0.0
  0
VERTEX
  5
C5D
  8
WHITE
 10
51.200657100000001
 20
209.882341615
 30
0.0
 42
0.41421354
  0
VERTEX
  5
C5E
  8
WHITE
 10
50.854942815000001
 20
210.22805589999999
 30
0.0
  0
VERTEX
  5
C5F
  8
WHITE
 10
48.521371389999992
 20
210.22805589999999
 30
0.0
 42
0.4142135500000001
  0
VERTEX
  5
C60
  8
WHITE
 10
48.175657100000002
 20
209.882341615
 30
0.0
  0
VERTEX
  5
C61
  8
WHITE
 10
48.175657100000002
 20
202.10377016999999
 30
0.0
 42
-0.4142135500000001
  0
VERTEX
  5
C62
  8
WHITE
 10
47.829942815000003
 20
201.75805589999999
 30
0.0
  0
VERTEX
  5
C63
  8
WHITE
 10
39.164620765000002
 20
201.75805811999999
 30
0.0
 42
0.40377923
  0
VERTEX
  5
C64
  8
WHITE
 10
24.045820265
 20
181.61436358500001
 30
0.0
 42
-0.222975
  0
VERTEX
  5
C65
  8
WHITE
 10
23.954787459999999
 20
181.33508728000001
 30
0.0
 42
-0.222975
  0
VERTEX
  5
C66
  8
WHITE
 10
23.681801815
 20
181.22663756
 30
0.0
 42
-0.2411635
  0
VERTEX
  5
C67
  8
WHITE
 10
20.469981839999999
 20
183.125401375
 30
0.0
 42
-0.3221703
  0
VERTEX
  5
C68
  8
WHITE
 10
19.68904895
 20
209.09142106499999
 30
0.0
 42
0.30012806
  0
VERTEX
  5
C69
  8
WHITE
 10
41.411951395000003
 20
229.68892285999999
 30
0.0
 42
-0.36836783
  0
VERTEX
  5
C6A
  8
WHITE
 10
43.118712745000003
 20
231.14377018499999
 30
0.0
  0
VERTEX
  5
C6B
  8
WHITE
 10
55.652603280000001
 20
231.14377018499999
 30
0.0
 42
-0.36836783
  0
VERTEX
  5
C6C
  8
WHITE
 10
57.359364034999999
 20
229.68892277500001
 30
0.0
 42
0.30012806
  0
VERTEX
  5
C6D
  8
WHITE
 10
79.082266809999993
 20
209.09142091000001
 30
0.0
 42
-0.3221703
  0
VERTEX
  5
C6E
  8
WHITE
 10
78.301334690000004
 20
183.12540102
 30
0.0
 42
-0.24116355
  0
VERTEX
  5
C6F
  8
WHITE
 10
75.089513229999994
 20
181.22663822999999
 30
0.0
 42
-0.22297468
  0
VERTEX
  5
C70
  8
WHITE
 10
74.816528184999996
 20
181.33508759
 30
0.0
 42
-0.22297468
  0
VERTEX
  5
C71
  8
WHITE
 10
74.725495280000004
 20
181.61436363499999
 30
0.0
 42
0.20721517
  0
VERTEX
  5
C72
  8
WHITE
 10
70.673271400000004
 20
195.446746335
 30
0.0
  0
VERTEX
  5
C73
  8
WHITE
 10
70.220885289999998
 20
195.97019958000001
 30
0.0
  0
VERTEX
  5
C74
  8
WHITE
 10
69.748863850000006
 20
196.47601796999999
 30
0.0
  0
SEQEND
  5
C75
  8
WHITE
  0
POLYLINE
  5
171
  8
WHITE
 66
     1
 10
0.0
 20
0.0
 30
0.0
 70
     1
  0
VERTEX
  5
C76
  8
WHITE
 10
50.765104399999991
 20
333.71821518000002
 30
0.0
 42
0.13131028
  0
VERTEX
  5
C77
  8
WHITE
 10
43.290008059999991
 20
333.17553635500002
 30
0.0
 42
-0.24264977
  0
VERTEX
  5
C78
  8
WHITE
 10
42.976328359999997
 20
333.2205419
 30
0.0
 42
-0.24264977
  0
VERTEX
  5
C79
  8
WHITE
 10
42.831092289999987
 20
333.50219213000003
 30
0.0
  0
VERTEX
  5
C7A
  8
WHITE
 10
42.831092289999987
 20
340.88885665499998
 30
0.0
 42
0.4142135200000001
  0
VERTEX
  5
C7B
  8
WHITE
 10
42.485377999999997
 20
341.23457094499997
 30
0.0
  0
VERTEX
  5
C7C
  8
WHITE
 10
40.151806575000002
 20
341.23457094499997
 30
0.0
 42
0.4142135500000001
  0
VERTEX
  5
C7D
  8
WHITE
 10
39.806092290000002
 20
340.88885665499998
 30
0.0
  0
VERTEX
  5
C7E
  8
WHITE
 10
39.806092290000002
 20
333.27770081
 30
0.0
 42
-0.24840605
  0
VERTEX
  5
C7F
  8
WHITE
 10
39.654693109999997
 20
332.99176376000003
 30
0.0
 42
-0.24840605
  0
VERTEX
  5
C80
  8
WHITE
 10
39.333100459999997
 20
332.95626819500001
 30
0.0
 42
0.30055891
  0
VERTEX
  5
C81
  8
WHITE
 10
23.669579769999999
 20
329.66819349000002
 30
0.0
 42
-0.10269485
  0
VERTEX
  5
C82
  8
WHITE
 10
23.376904849999999
 20
329.47384547000001
 30
0.0
 42
-0.39707264
  0
VERTEX
  5
C83
  8
WHITE
 10
18.962447614999999
 20
331.20869671499997
 30
0.0
 42
-0.36130104
  0
VERTEX
  5
C84
  8
WHITE
 10
22.001806160000001
 20
342.96314252500002
 30
0.0
 42
0.3647725
  0
VERTEX
  5
C85
  8
WHITE
 10
33.557276594999998
 20
360.06703150999999
 30
0.0
 42
-0.2126432
  0
VERTEX
  5
C86
  8
WHITE
 10
33.991295970000003
 20
361.40507051499998
 30
0.0
 42
-0.2126432
  0
VERTEX
  5
C87
  8
WHITE
 10
35.276258499999997
 20
361.97742808499999
 30
0.0
  0
VERTEX
  5
C88
  8
WHITE
 10
46.755924614999991
 20
361.97742808499999
 30
0.0
 42
-0.2126432
  0
VERTEX
  5
C89
  8
WHITE
 10
48.040886874999998
 20
361.40507051499998
 30
0.0
 42
-0.2126432
  0
VERTEX
  5
C8A
  8
WHITE
 10
48.474906255
 20
360.06703150999999
 30
0.0
 42
0.36477249
  0
VERTEX
  5
C8B
  8
WHITE
 10
60.03037823999999
 20
342.96314284499999
 30
0.0
 42
-0.36130101
  0
VERTEX
  5
C8C
  8
WHITE
 10
63.069736405
 20
331.20869607499998
 30
0.0
 42
-0.39707264
  0
VERTEX
  5
C8D
  8
WHITE
 10
58.655278254999999
 20
329.47384611000001
 30
0.0
 42
-0.10269485
  0
VERTEX
  5
C8E
  8
WHITE
 10
58.362603034999999
 20
329.66819343999998
 30
0.0
 42
0.12740545
  0
VERTEX
  5
C8F
  8
WHITE
 10
52.109557780000003
 20
333.39445955000002
 30
0.0
  0
VERTEX
  5
C90
  8
WHITE
 10
51.776409344999998
 20
333.48739627999998
 30
0.0
  0
VERTEX
  5
C91
  8
WHITE
 10
51.441188859999997
 20
333.57235744500002
 30
0.0
  0
VERTEX
  5
C92
  8
WHITE
 10
51.104039489999998
 20
333.64930857000002
 30
0.0
  0
VERTEX
  5
C93
  8
WHITE
 10
50.765104399999991
 20
333.71821518000002
 30
0.0
  0
SEQEND
  5
C94
  8
WHITE
  0
POLYLINE
  5
191
  8
WHITE
 66
     1
 10
0.0
 20
0.0
 30
0.0
 70
     1
  0
VERTEX
  5
C95
  8
WHITE
 10
59.563197934999998
 20
241.48745235000001
 30
0.0
 42
0.14667891
  0
VERTEX
  5
C96
  8
WHITE
 10
49.870178420000002
 20
242.76340762000001
 30
0.0
 42
-0.21984193
  0
VERTEX
  5
C97
  8
WHITE
 10
49.590876629999997
 20
242.841428565
 30
0.0
 42
-0.21984193
  0
VERTEX
  5
C98
  8
WHITE
 10
49.469249089999991
 20
243.10468414499999
 30
0.0
  0
VERTEX
  5
C99
  8
WHITE
 10
49.469249089999991
 20
251.09229690000001
 30
0.0
 42
0.41421356
  0
VERTEX
  5
C9A
  8
WHITE
 10
49.123534800000002
 20
251.43801118499999
 30
0.0
  0
VERTEX
  5
C9B
  8
WHITE
 10
46.789963374999999
 20
251.43801118499999
 30
0.0
 42
0.4142135500000001
  0
VERTEX
  5
C9C
  8
WHITE
 10
46.44424909
 20
251.09229690000001
 30
0.0
  0
VERTEX
  5
C9D
  8
WHITE
 10
46.444247359999999
 20
243.191669295
 30
0.0
 42
-0.21523375
  0
VERTEX
  5
C9E
  8
WHITE
 10
46.327218690000002
 20
242.93239947000001
 30
0.0
 42
-0.21523375
  0
VERTEX
  5
C9F
  8
WHITE
 10
46.055364365000003
 20
242.848661935
 30
0.0
 42
0.32443854
  0
VERTEX
  5
CA0
  8
WHITE
 10
28.537223765
 20
233.22729863999999
 30
0.0
 42
-0.23338958
  0
VERTEX
  5
CA1
  8
WHITE
 10
27.338761649999999
 20
232.27561729999999
 30
0.0
 42
-0.23338958
  0
VERTEX
  5
CA2
  8
WHITE
 10
25.854479090000002
 20
232.64832697
 30
0.0
 42
-0.21496135
  0
VERTEX
  5
CA3
  8
WHITE
 10
21.438853120000001
 20
241.96163238
 30
0.0
 42
-0.21496135
  0
VERTEX
  5
CA4
  8
WHITE
 10
25.492699295000001
 20
251.43801045999999
 30
0.0
 42
0.32502973
  0
VERTEX
  5
CA5
  8
WHITE
 10
40.518131490000002
 20
271.34764812999998
 30
0.0
 42
-0.40895921
  0
VERTEX
  5
CA6
  8
WHITE
 10
42.246423745000001
 20
273.045154045
 30
0.0
  0
VERTEX
  5
CA7
  8
WHITE
 10
54.272074519999997
 20
273.045154045
 30
0.0
 42
-0.4089592000000001
  0
VERTEX
  5
CA8
  8
WHITE
 10
56.000366685000003
 20
271.34764810000001
 30
0.0
 42
0.32502973
  0
VERTEX
  5
CA9
  8
WHITE
 10
71.025800535000002
 20
251.438010335
 30
0.0
 42
-0.21496134
  0
VERTEX
  5
CAA
  8
WHITE
 10
75.079646769999997
 20
241.96163168999999
 30
0.0
 42
-0.21496134
  0
VERTEX
  5
CAB
  8
WHITE
 10
70.664018740000003
 20
232.64832737
 30
0.0
 42
-0.23338952
  0
VERTEX
  5
CAC
  8
WHITE
 10
69.179737244999998
 20
232.275618915
 30
0.0
 42
-0.23338952
  0
VERTEX
  5
CAD
  8
WHITE
 10
67.981276089999994
 20
233.22729862
 30
0.0
 42
0.1579118
  0
VERTEX
  5
CAE
  8
WHITE
 10
60.797502684999991
 20
240.87177288999999
 30
0.0
  0
VERTEX
  5
CAF
  8
WHITE
 10
60.186589195000003
 20
241.192120235
 30
0.0
  0
VERTEX
  5
CB0
  8
WHITE
 10
59.563197934999998
 20
241.48745235000001
 30
0.0
  0
SEQEND
  5
CB1
  8
WHITE
  0
POLYLINE
  5
1AF
  8
WHITE
 66
     1
 10
0.0
 20
0.0
 30
0.0
 70
     1
  0
VERTEX
  5
CB2
  8
WHITE
 10
136.38802280499999
 20
580.27566961499986
 30
0.0
 42
0.12246652
  0
VERTEX
  5
CB3
  8
WHITE
 10
104.972214865
 20
592.63944544000003
 30
0.0
 42
0.10657604
  0
VERTEX
  5
CB4
  8
WHITE
 10
54.301283269999999
 20
568.97800364
 30
0.0
 42
0.20955201
  0
VERTEX
  5
CB5
  8
WHITE
 10
50.024921859999999
 20
555.8109342649999
 30
0.0
 42
-0.34862636
  0
VERTEX
  5
CB6
  8
WHITE
 10
46.356059339999987
 20
549.68760712999995
 30
0.0
 42
-0.34862636
  0
VERTEX
  5
CB7
  8
WHITE
 10
39.559754415
 20
551.87071389499988
 30
0.0
 42
0.33583279
  0
VERTEX
  5
CB8
  8
WHITE
 10
29.18851832
 20
565.20291861999999
 30
0.0
 42
-0.21514365
  0
VERTEX
  5
CB9
  8
WHITE
 10
25.272714505
 20
571.1849857599999
 30
0.0
 42
-0.21514365
  0
VERTEX
  5
CBA
  8
WHITE
 10
27.166389909999999
 20
578.07937704499989
 30
0.0
 42
-0.1121955
  0
VERTEX
  5
CBB
  8
WHITE
 10
60.229541079999997
 20
605.82475651000004
 30
0.0
 42
0.14650859
  0
VERTEX
  5
CBC
  8
WHITE
 10
79.56829639
 20
629.75103132499999
 30
0.0
 42
-0.4026191
  0
VERTEX
  5
CBD
  8
WHITE
 10
80.006447774999984
 20
629.94484051500001
 30
0.0
  0
VERTEX
  5
CBE
  8
WHITE
 10
105.48869514499999
 20
620.67006087000004
 30
0.0
 42
0.41421218
  0
VERTEX
  5
CBF
  8
WHITE
 10
105.93179988999999
 20
620.87668591500005
 30
0.0
  0
VERTEX
  5
CC0
  8
WHITE
 10
106.72992961
 20
623.06952539500003
 30
0.0
 42
0.41421356
  0
VERTEX
  5
CC1
  8
WHITE
 10
106.52330569999999
 20
623.51263180499996
 30
0.0
  0
VERTEX
  5
CC2
  8
WHITE
 10
80.980672115000004
 20
632.80939021999995
 30
0.0
 42
-0.24823453
  0
VERTEX
  5
CC3
  8
WHITE
 10
80.763815754999996
 20
633.04923868499986
 30
0.0
 42
-0.24823453
  0
VERTEX
  5
CC4
  8
WHITE
 10
80.840101790000006
 20
633.36345848500002
 30
0.0
 42
-0.32217278
  0
VERTEX
  5
CC5
  8
WHITE
 10
116.02670682500001
 20
641.32978302499998
 30
0.0
 42
-0.40218083
  0
VERTEX
  5
CC6
  8
WHITE
 10
141.68161986000001
 20
622.97046009500002
 30
0.0
 42
0.1645318
  0
VERTEX
  5
CC7
  8
WHITE
 10
168.65370196000001
 20
600.94759971999997
 30
0.0
 42
-0.29772101
  0
VERTEX
  5
CC8
  8
WHITE
 10
170.21507471999999
 20
593.41765554000006
 30
0.0
 42
-0.20251568
  0
VERTEX
  5
CC9
  8
WHITE
 10
183.66880133999999
 20
586.83172050500002
 30
0.0
 42
0.2000748
  0
VERTEX
  5
CCA
  8
WHITE
 10
244.66675014
 20
539.94946102999995
 30
0.0
 42
-0.20215456
  0
VERTEX
  5
CCB
  8
WHITE
 10
252.53165925499999
 20
535.83250934499995
 30
0.0
 42
-0.16880548
  0
VERTEX
  5
CCC
  8
WHITE
 10
266.103653635
 20
538.38362963500003
 30
0.0
 42
-0.29093649
  0
VERTEX
  5
CCD
  8
WHITE
 10
273.44442614000002
 20
548.62719135500004
 30
0.0
 42
-0.0928419
  0
VERTEX
  5
CCE
  8
WHITE
 10
276.78455492000001
 20
555.67732921000004
 30
0.0
 42
-0.30226462
  0
VERTEX
  5
CCF
  8
WHITE
 10
289.46819429999999
 20
562.16809238500002
 30
0.0
  0
VERTEX
  5
CD0
  8
WHITE
 10
268.21546039999998
 20
503.77668853499989
 30
0.0
 42
-0.3913082
  0
VERTEX
  5
CD1
  8
WHITE
 10
260.572920845
 20
507.59157453
 30
0.0
 42
-0.2031579
  0
VERTEX
  5
CD2
  8
WHITE
 10
248.51828602000001
 20
512.75402750000001
 30
0.0
 42
-0.31833439
  0
VERTEX
  5
CD3
  8
WHITE
 10
229.25195514999999
 20
515.11686041500002
 30
0.0
 42
0.20773244
  0
VERTEX
  5
CD4
  8
WHITE
 10
191.22832006499999
 20
538.25540710500002
 30
0.0
 42
-0.22251421
  0
VERTEX
  5
CD5
  8
WHITE
 10
173.685990495
 20
547.48167832000001
 30
0.0
 42
-0.27833592
  0
VERTEX
  5
CD6
  8
WHITE
 10
156.6647983
 20
561.68442370000002
 30
0.0
 42
-0.32676321
  0
VERTEX
  5
CD7
  8
WHITE
 10
152.29512110499999
 20
564.56639573500001
 30
0.0
 42
0.07544272
  0
VERTEX
  5
CD8
  8
WHITE
 10
137.506722435
 20
579.46250639000004
 30
0.0
  0
VERTEX
  5
CD9
  8
WHITE
 10
136.38802280499999
 20
580.27566961499986
 30
0.0
  0
SEQEND
  5
CDA
  8
WHITE
  0
POLYLINE
  5
1D9
  8
WHITE
 66
     1
 10
0.0
 20
0.0
 30
0.0
 70
     1
  0
VERTEX
  5
CDB
  8
WHITE
 10
108.21270253
 20
401.52933778999989
 30
0.0
 42
0.15338815
  0
VERTEX
  5
CDC
  8
WHITE
 10
117.12422997500001
 20
403.11027296999993
 30
0.0
  0
VERTEX
  5
CDD
  8
WHITE
 10
126.55282567
 20
405.05661249500002
 30
0.0
 42
-0.24854884
  0
VERTEX
  5
CDE
  8
WHITE
 10
126.86359976
 20
404.96601700500003
 30
0.0
 42
-0.24854884
  0
VERTEX
  5
CDF
  8
WHITE
 10
126.96317974
 20
404.65800416500002
 30
0.0
  0
VERTEX
  5
CE0
  8
WHITE
 10
123.209532345
 20
383.37000510000001
 30
0.0
 42
0.41421356
  0
VERTEX
  5
CE1
  8
WHITE
 10
123.48996083999999
 20
382.96950970500001
 30
0.0
  0
VERTEX
  5
CE2
  8
WHITE
 10
125.78808037500001
 20
382.56428856999997
 30
0.0
 42
0.4142132700000001
  0
VERTEX
  5
CE3
  8
WHITE
 10
126.18857574499999
 20
382.84471867000002
 30
0.0
  0
VERTEX
  5
CE4
  8
WHITE
 10
129.98395416
 20
404.36938397
 30
0.0
 42
-0.24854875
  0
VERTEX
  5
CE5
  8
WHITE
 10
130.18287599000001
 20
404.62476232
 30
0.0
 42
-0.24854875
  0
VERTEX
  5
CE6
  8
WHITE
 10
130.50589284500001
 20
404.60360366999998
 30
0.0
  0
VERTEX
  5
CE7
  8
WHITE
 10
139.254267175
 20
399.20814971499999
 30
0.0
 42
0.21045859
  0
VERTEX
  5
CE8
  8
WHITE
 10
150.39632681000001
 20
394.30994355500002
 30
0.0
 42
0.21045859
  0
VERTEX
  5
CE9
  8
WHITE
 10
161.53172230499999
 20
399.22328148999998
 30
0.0
 42
0.25067227
  0
VERTEX
  5
CEA
  8
WHITE
 10
174.54180640000001
 20
439.40933459500002
 30
0.0
 42
-0.24517442
  0
VERTEX
  5
CEB
  8
WHITE
 10
175.49529274
 20
442.462063855
 30
0.0
 42
-0.24517442
  0
VERTEX
  5
CEC
  8
WHITE
 10
178.54457647500001
 20
443.42651071499989
 30
0.0
  0
VERTEX
  5
CED
  8
WHITE
 10
181.300615945
 20
442.94054705500002
 30
0.0
 42
-0.3175683999999999
  0
VERTEX
  5
CEE
  8
WHITE
 10
184.10974910499999
 20
440.10813607
 30
0.0
 42
-0.20448812
  0
VERTEX
  5
CEF
  8
WHITE
 10
168.28095740500001
 20
374.61338959
 30
0.0
 42
-0.35920069
  0
VERTEX
  5
CF0
  8
WHITE
 10
164.00805875
 20
373.56523420500002
 30
0.0
 42
0.28335245
  0
VERTEX
  5
CF1
  8
WHITE
 10
139.60908714499999
 20
371.04108095499998
 30
0.0
 42
0.28335245
  0
VERTEX
  5
CF2
  8
WHITE
 10
130.8935027
 20
348.11249983499999
 30
0.0
 42
-0.24661342
  0
VERTEX
  5
CF3
  8
WHITE
 10
130.66014466999999
 20
347.34342578000002
 30
0.0
 42
-0.24661342
  0
VERTEX
  5
CF4
  8
WHITE
 10
129.89452133
 20
347.09898286999999
 30
0.0
  0
VERTEX
  5
CF5
  8
WHITE
 10
108.097130175
 20
350.94245107
 30
0.0
 42
-0.24661314
  0
VERTEX
  5
CF6
  8
WHITE
 10
107.46128505999999
 20
351.43401070499999
 30
0.0
 42
-0.24661314
  0
VERTEX
  5
CF7
  8
WHITE
 10
107.505038025
 20
352.23651677999999
 30
0.0
 42
0.28335245
  0
VERTEX
  5
CF8
  8
WHITE
 10
107.15710423500001
 20
376.76324070499999
 30
0.0
 42
0.28335245
  0
VERTEX
  5
CF9
  8
WHITE
 10
85.092881610000006
 20
387.48011171500002
 30
0.0
 42
-0.35920067
  0
VERTEX
  5
CFA
  8
WHITE
 10
81.436161235000014
 20
389.92647002500001
 30
0.0
 42
-0.20448812
  0
VERTEX
  5
CFB
  8
WHITE
 10
88.962484230000015
 20
456.88516609499999
 30
0.0
 42
-0.31756836
  0
VERTEX
  5
CFC
  8
WHITE
 10
92.570946030000002
 20
458.5859801549999
 30
0.0
  0
VERTEX
  5
CFD
  8
WHITE
 10
95.326987230000015
 20
458.10001649999992
 30
0.0
 42
-0.24517446
  0
VERTEX
  5
CFE
  8
WHITE
 10
97.862516224999993
 20
456.15081564500002
 30
0.0
 42
-0.24517446
  0
VERTEX
  5
CFF
  8
WHITE
 10
97.714404889999983
 20
452.95607840999998
 30
0.0
 42
0.25067227
  0
VERTEX
  5
D00
  8
WHITE
 10
96.195445350000014
 20
410.74382995500002
 30
0.0
 42
0.24443151
  0
VERTEX
  5
D01
  8
WHITE
 10
106.84943978
 20
401.76993439
 30
0.0
  0
VERTEX
  5
D02
  8
WHITE
 10
107.188119055
 20
401.6980727049999
 30
0.0
  0
VERTEX
  5
D03
  8
WHITE
 10
107.528312235
 20
401.63400355999988
 30
0.0
  0
VERTEX
  5
D04
  8
WHITE
 10
107.869884875
 20
401.57775068000001
 30
0.0
  0
VERTEX
  5
D05
  8
WHITE
 10
108.21270253
 20
401.52933778999989
 30
0.0
  0
SEQEND
  5
D06
  8
WHITE
  0
POLYLINE
  5
206
  8
WHITE
 66
     1
 10
0.0
 20
0.0
 30
0.0
 70
     1
  0
VERTEX
  5
D07
  8
WHITE
 10
124.44397467
 20
221.95240114000001
 30
0.0
 42
0.23881613
  0
VERTEX
  5
D08
  8
WHITE
 10
136.57154402
 20
228.737222675
 30
0.0
 42
-0.29437189
  0
VERTEX
  5
D09
  8
WHITE
 10
146.393060865
 20
232.90141442000001
 30
0.0
 42
-0.36481256
  0
VERTEX
  5
D0A
  8
WHITE
 10
146.67975541499999
 20
232.56077525500001
 30
0.0
  0
VERTEX
  5
D0B
  8
WHITE
 10
146.67975541499999
 20
211.06735509500001
 30
0.0
 42
0.4142135500000001
  0
VERTEX
  5
D0C
  8
WHITE
 10
147.0254697
 20
210.72164083000001
 30
0.0
  0
VERTEX
  5
D0D
  8
WHITE
 10
149.35904113000001
 20
210.72164083000001
 30
0.0
 42
0.4142135500000001
  0
VERTEX
  5
D0E
  8
WHITE
 10
149.70475541499999
 20
211.067355115
 30
0.0
  0
VERTEX
  5
D0F
  8
WHITE
 10
149.70475541499999
 20
232.435562745
 30
0.0
 42
-0.34649248
  0
VERTEX
  5
D10
  8
WHITE
 10
149.96943188500001
 20
232.77164278000001
 30
0.0
 42
-0.31213043
  0
VERTEX
  5
D11
  8
WHITE
 10
160.41796538
 20
228.73722169999999
 30
0.0
 42
0.23187676
  0
VERTEX
  5
D12
  8
WHITE
 10
172.14172271499999
 20
221.97437916499999
 30
0.0
 42
0.23187676
  0
VERTEX
  5
D13
  8
WHITE
 10
184.66925557499999
 20
227.09721319499999
 30
0.0
 42
0.21621407
  0
VERTEX
  5
D14
  8
WHITE
 10
180.280101505
 20
300.065400705
 30
0.0
 42
-0.26515205
  0
VERTEX
  5
D15
  8
WHITE
 10
180.33563244000001
 20
301.77741020500002
 30
0.0
 42
-0.26515205
  0
VERTEX
  5
D16
  8
WHITE
 10
181.83751961999999
 20
302.60105819500001
 30
0.0
 42
-0.17741677
  0
VERTEX
  5
D17
  8
WHITE
 10
192.343984275
 20
298.55092891999999
 30
0.0
 42
-0.11145332
  0
VERTEX
  5
D18
  8
WHITE
 10
192.79223056000001
 20
297.93574735499999
 30
0.0
 42
-0.22792348
  0
VERTEX
  5
D19
  8
WHITE
 10
189.324534175
 20
212.33938061999999
 30
0.0
 42
-0.28374787
  0
VERTEX
  5
D1A
  8
WHITE
 10
186.18974281000001
 20
210.506211565
 30
0.0
 42
0.28542075
  0
VERTEX
  5
D1B
  8
WHITE
 10
163.641808505
 20
203.835264975
 30
0.0
 42
0.28542075
  0
VERTEX
  5
D1C
  8
WHITE
 10
159.63971953500001
 20
180.66428844000001
 30
0.0
 42
-0.22460784
  0
VERTEX
  5
D1D
  8
WHITE
 10
159.59771111000001
 20
179.92627386000001
 30
0.0
 42
-0.22460784
  0
VERTEX
  5
D1E
  8
WHITE
 10
159.00048481499999
 20
179.49066899499999
 30
0.0
 42
-0.09442374
  0
VERTEX
  5
D1F
  8
WHITE
 10
137.989026435
 20
179.490671195
 30
0.0
 42
-0.22460819
  0
VERTEX
  5
D20
  8
WHITE
 10
137.391799765
 20
179.92627422499999
 30
0.0
 42
-0.22460819
  0
VERTEX
  5
D21
  8
WHITE
 10
137.34979129499999
 20
180.66428844000001
 30
0.0
 42
0.28542075
  0
VERTEX
  5
D22
  8
WHITE
 10
133.34770233
 20
203.835264975
 30
0.0
 42
0.28542075
  0
VERTEX
  5
D23
  8
WHITE
 10
110.79976802500001
 20
210.506211565
 30
0.0
 42
-0.28374787
  0
VERTEX
  5
D24
  8
WHITE
 10
107.66497671499999
 20
212.33938062499999
 30
0.0
 42
-0.22706835
  0
VERTEX
  5
D25
  8
WHITE
 10
104.070299455
 20
297.64042469999998
 30
0.0
 42
-0.1960256
  0
VERTEX
  5
D26
  8
WHITE
 10
104.99892901
 20
298.55762294499999
 30
0.0
 42
-0.03757257
  0
VERTEX
  5
D27
  8
WHITE
 10
114.271399245
 20
301.59909901499998
 30
0.0
 42
-0.29388431
  0
VERTEX
  5
D28
  8
WHITE
 10
116.04102991000001
 20
300.99329275500003
 30
0.0
 42
-0.29388431
  0
VERTEX
  5
D29
  8
WHITE
 10
116.223333095
 20
299.13174515499992
 30
0.0
 42
0.21310266
  0
VERTEX
  5
D2A
  8
WHITE
 10
112.320254715
 20
227.09721267
 30
0.0
 42
0.20144495
  0
VERTEX
  5
D2B
  8
WHITE
 10
123.0611176
 20
221.9575988
 30
0.0
  0
VERTEX
  5
D2C
  8
WHITE
 10
123.406722425
 20
221.94463476999999
 30
0.0
  0
VERTEX
  5
D2D
  8
WHITE
 10
123.752487675
 20
221.93944682
 30
0.0
  0
VERTEX
  5
D2E
  8
WHITE
 10
124.09828215500001
 20
221.94203544499999
 30
0.0
  0
VERTEX
  5
D2F
  8
WHITE
 10
124.44397467
 20
221.95240114000001
 30
0.0
  0
SEQEND
  5
D30
  8
WHITE
  0
POLYLINE
  5
231
  8
WHITE
 66
     1
 10
0.0
 20
0.0
 30
0.0
 70
     1
  0
VERTEX
  5
D31
  8
WHITE
 10
182.41621341499999
 20
49.654193349999993
 30
0.0
 42
0.40614014
  0
VERTEX
  5
D32
  8
WHITE
 10
203.80380546000001
 20
51.203236015000002
 30
0.0
 42
0.26370879
  0
VERTEX
  5
D33
  8
WHITE
 10
190.77418423500001
 20
137.482454475
 30
0.0
 42
-0.26401247
  0
VERTEX
  5
D34
  8
WHITE
 10
190.64725312499999
 20
138.32621523
 30
0.0
 42
-0.26401247
  0
VERTEX
  5
D35
  8
WHITE
 10
191.30661290500001
 20
138.867776265
 30
0.0
 42
-0.1427815
  0
VERTEX
  5
D36
  8
WHITE
 10
202.39008686
 20
137.61815816000001
 30
0.0
 42
-0.15418902
  0
VERTEX
  5
D37
  8
WHITE
 10
204.77569078499999
 20
135.6010871
 30
0.0
 42
-0.26913515
  0
VERTEX
  5
D38
  8
WHITE
 10
208.45908345999999
 20
36.445403970000001
 30
0.0
 42
-0.28374784
  0
VERTEX
  5
D39
  8
WHITE
 10
205.32429250499999
 20
34.612235259999999
 30
0.0
 42
0.29403863
  0
VERTEX
  5
D3A
  8
WHITE
 10
182.78371375500001
 20
28.123749725
 30
0.0
 42
0.29403863
  0
VERTEX
  5
D3B
  8
WHITE
 10
179.35736137999999
 20
4.9194772450000004
 30
0.0
 42
-0.22846167
  0
VERTEX
  5
D3C
  8
WHITE
 10
179.33945367999999
 20
4.1690459600000001
 30
0.0
 42
-0.22846167
  0
VERTEX
  5
D3D
  8
WHITE
 10
178.74120145500001
 20
3.7156558350000002
 30
0.0
 42
-0.09996485
  0
VERTEX
  5
D3E
  8
WHITE
 10
156.52043945
 20
3.7150436550000001
 30
0.0
 42
-0.22880771
  0
VERTEX
  5
D3F
  8
WHITE
 10
155.921644155
 20
4.169411685
 30
0.0
 42
-0.22880771
  0
VERTEX
  5
D40
  8
WHITE
 10
155.90515242999999
 20
4.9208996049999989
 30
0.0
 42
0.29476454
  0
VERTEX
  5
D41
  8
WHITE
 10
152.50446901000001
 20
28.15027663
 30
0.0
 42
0.29476454
  0
VERTEX
  5
D42
  8
WHITE
 10
129.934317755
 20
34.612235339999998
 30
0.0
 42
-0.2837479
  0
VERTEX
  5
D43
  8
WHITE
 10
126.799526
 20
36.445403964999997
 30
0.0
 42
-0.26740322
  0
VERTEX
  5
D44
  8
WHITE
 10
130.14375405499999
 20
135.059763675
 30
0.0
 42
-0.15574129
  0
VERTEX
  5
D45
  8
WHITE
 10
132.54524248999999
 20
137.10443473000001
 30
0.0
 42
-0.15411618
  0
VERTEX
  5
D46
  8
WHITE
 10
143.39001139499999
 20
138.08847256000001
 30
0.0
 42
-0.25668459
  0
VERTEX
  5
D47
  8
WHITE
 10
144.01709597000001
 20
137.54085054000001
 30
0.0
 42
-0.25668459
  0
VERTEX
  5
D48
  8
WHITE
 10
143.890953
 20
136.71792069
 30
0.0
 42
0.26078586
  0
VERTEX
  5
D49
  8
WHITE
 10
131.45480459999999
 20
51.203236539999992
 30
0.0
 42
0.23187676
  0
VERTEX
  5
D4A
  8
WHITE
 10
143.98233746
 20
46.080402505000002
 30
0.0
 42
0.23187676
  0
VERTEX
  5
D4B
  8
WHITE
 10
155.70609414
 20
52.843245520000011
 30
0.0
 42
-0.27614942
  0
VERTEX
  5
D4C
  8
WHITE
 10
164.87044724500001
 20
57.098610055000002
 30
0.0
 42
-0.38402604
  0
VERTEX
  5
D4D
  8
WHITE
 10
166.41930475999999
 20
55.379407
 30
0.0
  0
VERTEX
  5
D4E
  8
WHITE
 10
166.41930475999999
 20
35.173378454999998
 30
0.0
 42
0.41421356
  0
VERTEX
  5
D4F
  8
WHITE
 10
166.765019045
 20
34.827664169999998
 30
0.0
  0
VERTEX
  5
D50
  8
WHITE
 10
169.09859047500001
 20
34.827664169999998
 30
0.0
 42
0.41421356
  0
VERTEX
  5
D51
  8
WHITE
 10
169.44430475999999
 20
35.173378454999998
 30
0.0
  0
VERTEX
  5
D52
  8
WHITE
 10
169.44430475999999
 20
55.419876315000003
 30
0.0
 42
-0.40561973
  0
VERTEX
  5
D53
  8
WHITE
 10
171.12201156500001
 20
57.147698755
 30
0.0
 42
-0.25614444
  0
VERTEX
  5
D54
  8
WHITE
 10
179.55251472500001
 20
52.843245045000003
 30
0.0
 42
0.04745511
  0
VERTEX
  5
D55
  8
WHITE
 10
181.398904155
 20
50.591066775000002
 30
0.0
  0
VERTEX
  5
D56
  8
WHITE
 10
181.64527973
 20
50.348310824999999
 30
0.0
  0
VERTEX
  5
D57
  8
WHITE
 10
181.89702080000001
 20
50.111187325000003
 30
0.0
  0
VERTEX
  5
D58
  8
WHITE
 10
182.15403086500001
 20
49.87978519
 30
0.0
  0
VERTEX
  5
D59
  8
WHITE
 10
182.41621341499999
 20
49.654193349999993
 30
0.0
  0
SEQEND
  5
D5A
  8
WHITE
  0
POLYLINE
  5
25C
  8
WHITE
 66
     1
 10
0.0
 20
0.0
 30
0.0
 70
     1
  0
VERTEX
  5
D5B
  8
WHITE
 10
171.71840767500001
 20
470.3715762249999
 30
0.0
 42
0.24970052
  0
VERTEX
  5
D5C
  8
WHITE
 10
147.69199172
 20
434.01744474499992
 30
0.0
 42
-0.12983304
  0
VERTEX
  5
D5D
  8
WHITE
 10
147.38693169499999
 20
433.18900507500001
 30
0.0
 42
-0.41960954
  0
VERTEX
  5
D5E
  8
WHITE
 10
126.71723022499999
 20
429.74391379999992
 30
0.0
 42
-0.3514602
  0
VERTEX
  5
D5F
  8
WHITE
 10
125.47382724000001
 20
432.91079898499987
 30
0.0
 42
-0.3514602
  0
VERTEX
  5
D60
  8
WHITE
 10
128.29513578999999
 20
434.8122266549999
 30
0.0
 42
0.21289361
  0
VERTEX
  5
D61
  8
WHITE
 10
138.46661581999999
 20
447.50743943999993
 30
0.0
 42
0.25049293
  0
VERTEX
  5
D62
  8
WHITE
 10
132.144754995
 20
500.60458934000002
 30
0.0
 42
-0.38845396
  0
VERTEX
  5
D63
  8
WHITE
 10
132.297914945
 20
501.76135918499989
 30
0.0
  0
VERTEX
  5
D64
  8
WHITE
 10
140.55247724500001
 20
508.68775873999999
 30
0.0
 42
-0.41421329
  0
VERTEX
  5
D65
  8
WHITE
 10
141.03953056
 20
508.645145985
 30
0.0
  0
VERTEX
  5
D66
  8
WHITE
 10
153.67505600499999
 20
493.58671064499993
 30
0.0
 42
0.4142136
  0
VERTEX
  5
D67
  8
WHITE
 10
154.162109405
 20
493.54409901499997
 30
0.0
  0
VERTEX
  5
D68
  8
WHITE
 10
155.949728935
 20
495.04409115999999
 30
0.0
 42
0.41421323
  0
VERTEX
  5
D69
  8
WHITE
 10
155.99234064500001
 20
495.531143515
 30
0.0
  0
VERTEX
  5
D6A
  8
WHITE
 10
143.35681375999999
 20
510.58957888999993
 30
0.0
 42
-0.41421347
  0
VERTEX
  5
D6B
  8
WHITE
 10
143.39942640000001
 20
511.07663234500001
 30
0.0
  0
VERTEX
  5
D6C
  8
WHITE
 10
152.068882035
 20
518.35117053500005
 30
0.0
 42
-0.40153159
  0
VERTEX
  5
D6D
  8
WHITE
 10
153.26173381000001
 20
518.27290046999985
 30
0.0
 42
0.09755597
  0
VERTEX
  5
D6E
  8
WHITE
 10
176.040147795
 20
501.50113796499988
 30
0.0
 42
0.08650108
  0
VERTEX
  5
D6F
  8
WHITE
 10
242.54443349499999
 20
490.73963866999992
 30
0.0
 42
0.15949017
  0
VERTEX
  5
D70
  8
WHITE
 10
250.18254733500001
 20
493.05164499999989
 30
0.0
 42
-0.28836969
  0
VERTEX
  5
D71
  8
WHITE
 10
252.02115752500001
 20
493.14132394500001
 30
0.0
 42
-0.21076195
  0
VERTEX
  5
D72
  8
WHITE
 10
255.36372674500001
 20
488.67602706999992
 30
0.0
 42
-0.21076195
  0
VERTEX
  5
D73
  8
WHITE
 10
254.31960075999999
 20
483.19684381000002
 30
0.0
 42
-0.09389412
  0
VERTEX
  5
D74
  8
WHITE
 10
240.40868871999999
 20
467.6539418349999
 30
0.0
 42
-0.28247936
  0
VERTEX
  5
D75
  8
WHITE
 10
238.60944596499999
 20
467.46814806999998
 30
0.0
 42
0.19451574
  0
VERTEX
  5
D76
  8
WHITE
 10
174.084309375
 20
471.56977782000001
 30
0.0
 42
0.00665725
  0
VERTEX
  5
D77
  8
WHITE
 10
172.97488956500001
 20
471.02907942500002
 30
0.0
  0
VERTEX
  5
D78
  8
WHITE
 10
172.34413391000001
 20
470.7051333949999
 30
0.0
  0
VERTEX
  5
D79
  8
WHITE
 10
171.71840767500001
 20
470.3715762249999
 30
0.0
  0
SEQEND
  5
D7A
  8
WHITE
  0
POLYLINE
  5
27D
  8
WHITE
 66
     1
 10
0.0
 20
0.0
 30
0.0
 70
     1
  0
VERTEX
  5
D7B
  8
WHITE
 10
201.95844466
 20
323.70245205999998
 30
0.0
 42
0.22865924
  0
VERTEX
  5
D7C
  8
WHITE
 10
190.42211535999999
 20
316.95343595999998
 30
0.0
 42
-0.29437188
  0
VERTEX
  5
D7D
  8
WHITE
 10
180.60059871000001
 20
312.78924449499999
 30
0.0
 42
-0.36481256
  0
VERTEX
  5
D7E
  8
WHITE
 10
180.31390415999999
 20
313.12988365500001
 30
0.0
  0
VERTEX
  5
D7F
  8
WHITE
 10
180.31390415999999
 20
334.62330379999997
 30
0.0
 42
0.4142133900000001
  0
VERTEX
  5
D80
  8
WHITE
 10
179.96818987500001
 20
334.96901808500002
 30
0.0
  0
VERTEX
  5
D81
  8
WHITE
 10
177.63461842500001
 20
334.96901808500002
 30
0.0
 42
0.4142135500000001
  0
VERTEX
  5
D82
  8
WHITE
 10
177.28890415999999
 20
334.62330379999997
 30
0.0
  0
VERTEX
  5
D83
  8
WHITE
 10
177.28890415999999
 20
313.25509617
 30
0.0
 42
-0.34649248
  0
VERTEX
  5
D84
  8
WHITE
 10
177.02422769
 20
312.91901613499999
 30
0.0
 42
-0.31213043
  0
VERTEX
  5
D85
  8
WHITE
 10
166.57569354
 20
316.95343673999997
 30
0.0
 42
0.23187676
  0
VERTEX
  5
D86
  8
WHITE
 10
154.85193686
 20
323.71627975000001
 30
0.0
 42
0.23187676
  0
VERTEX
  5
D87
  8
WHITE
 10
142.32440346000001
 20
318.593446245
 30
0.0
 42
0.18340327
  0
VERTEX
  5
D88
  8
WHITE
 10
142.13486132
 20
255.80013345
 30
0.0
 42
-0.27259929
  0
VERTEX
  5
D89
  8
WHITE
 10
141.98428017000001
 20
254.93592656999999
 30
0.0
 42
-0.27259929
  0
VERTEX
  5
D8A
  8
WHITE
 10
141.15545900500001
 20
254.64855345500001
 30
0.0
 42
-0.13551001
  0
VERTEX
  5
D8B
  8
WHITE
 10
129.72421878
 20
260.42492893500003
 30
0.0
 42
-0.19240506
  0
VERTEX
  5
D8C
  8
WHITE
 10
137.66912693
 20
333.35127748000002
 30
0.0
 42
-0.28374787
  0
VERTEX
  5
D8D
  8
WHITE
 10
140.80391675000001
 20
335.18444519500002
 30
0.0
 42
0.28200613
  0
VERTEX
  5
D8E
  8
WHITE
 10
163.16337260500001
 20
341.64622185500002
 30
0.0
 42
0.28200613
  0
VERTEX
  5
D8F
  8
WHITE
 10
167.55881982
 20
364.50185269999997
 30
0.0
 42
-0.21391875
  0
VERTEX
  5
D90
  8
WHITE
 10
167.98535516999999
 20
365.85037475500002
 30
0.0
 42
-0.21391875
  0
VERTEX
  5
D91
  8
WHITE
 10
169.27594335000001
 20
366.42901689000001
 30
0.0
 42
-0.08272414
  0
VERTEX
  5
D92
  8
WHITE
 10
187.72186496
 20
366.42901635499999
 30
0.0
 42
-0.21391875
  0
VERTEX
  5
D93
  8
WHITE
 10
189.01245315
 20
365.85037475500002
 30
0.0
 42
-0.21391875
  0
VERTEX
  5
D94
  8
WHITE
 10
189.43898834500001
 20
364.50185270499998
 30
0.0
 42
0.28200613
  0
VERTEX
  5
D95
  8
WHITE
 10
193.83443571000001
 20
341.64622185500002
 30
0.0
 42
0.28200613
  0
VERTEX
  5
D96
  8
WHITE
 10
216.19389154999999
 20
335.18444562000002
 30
0.0
 42
-0.28374787
  0
VERTEX
  5
D97
  8
WHITE
 10
219.32868285999999
 20
333.35127828499998
 30
0.0
 42
-0.19240506
  0
VERTEX
  5
D98
  8
WHITE
 10
227.27358943499999
 20
260.42492916999998
 30
0.0
 42
-0.13551001
  0
VERTEX
  5
D99
  8
WHITE
 10
215.84234936499999
 20
254.64855321499999
 30
0.0
 42
-0.27259927
  0
VERTEX
  5
D9A
  8
WHITE
 10
215.01352811500001
 20
254.93592661
 30
0.0
 42
-0.27259927
  0
VERTEX
  5
D9B
  8
WHITE
 10
214.86294671499999
 20
255.80013355
 30
0.0
 42
0.18340327
  0
VERTEX
  5
D9C
  8
WHITE
 10
214.67340432
 20
318.59344571999998
 30
0.0
 42
0.2114722
  0
VERTEX
  5
D9D
  8
WHITE
 10
203.34130157499999
 20
323.75050971000002
 30
0.0
  0
VERTEX
  5
D9E
  8
WHITE
 10
202.99524741499999
 20
323.75016956500002
 30
0.0
  0
VERTEX
  5
D9F
  8
WHITE
 10
202.64933231500001
 20
323.74204330999999
 30
0.0
  0
VERTEX
  5
DA0
  8
WHITE
 10
202.303687615
 20
323.72613583999998
 30
0.0
  0
VERTEX
  5
DA1
  8
WHITE
 10
201.95844466
 20
323.70245205999998
 30
0.0
  0
SEQEND
  5
DA2
  8
WHITE
  0
POLYLINE
  5
2A6
  8
WHITE
 66
     1
 10
0.0
 20
0.0
 30
0.0
 70
     1
  0
VERTEX
  5
DA3
  8
WHITE
 10
222.010578315
 20
154.86546228
 30
0.0
 42
0.21466994
  0
VERTEX
  5
DA4
  8
WHITE
 10
211.289653625
 20
148.20354358500001
 30
0.0
 42
-0.29437188
  0
VERTEX
  5
DA5
  8
WHITE
 10
201.468137415
 20
144.03934986499999
 30
0.0
 42
-0.36481256
  0
VERTEX
  5
DA6
  8
WHITE
 10
201.18144143000001
 20
144.37999073
 30
0.0
  0
VERTEX
  5
DA7
  8
WHITE
 10
201.18144315999999
 20
165.87341086999999
 30
0.0
 42
0.4142135500000001
  0
VERTEX
  5
DA8
  8
WHITE
 10
200.83572889000001
 20
166.219125155
 30
0.0
  0
VERTEX
  5
DA9
  8
WHITE
 10
198.50215744499999
 20
166.219125155
 30
0.0
 42
0.41421353
  0
VERTEX
  5
DAA
  8
WHITE
 10
198.15644316000001
 20
165.87341089
 30
0.0
  0
VERTEX
  5
DAB
  8
WHITE
 10
198.15644316000001
 20
144.50520323999999
 30
0.0
 42
-0.34649248
  0
VERTEX
  5
DAC
  8
WHITE
 10
197.891767085
 20
144.16912116
 30
0.0
 42
-0.31213043
  0
VERTEX
  5
DAD
  8
WHITE
 10
187.44323176500001
 20
148.20354331499999
 30
0.0
 42
0.23187676
  0
VERTEX
  5
DAE
  8
WHITE
 10
175.71947585999999
 20
154.96638682
 30
0.0
 42
0.23187676
  0
VERTEX
  5
DAF
  8
WHITE
 10
163.19194246000001
 20
149.84355331500001
 30
0.0
 42
0.21621407
  0
VERTEX
  5
DB0
  8
WHITE
 10
167.58109666499999
 20
76.875365079999995
 30
0.0
 42
-0.26515218
  0
VERTEX
  5
DB1
  8
WHITE
 10
167.525565685
 20
75.163355050000007
 30
0.0
 42
-0.26515218
  0
VERTEX
  5
DB2
  8
WHITE
 10
166.023677225
 20
74.339707790000006
 30
0.0
 42
-0.16982778
  0
VERTEX
  5
DB3
  8
WHITE
 10
155.88469544
 20
78.077549160000004
 30
0.0
 42
-0.11998512
  0
VERTEX
  5
DB4
  8
WHITE
 10
154.90483485499999
 20
79.387246989999994
 30
0.0
 42
-0.22681699
  0
VERTEX
  5
DB5
  8
WHITE
 10
158.53666440000001
 20
164.601385365
 30
0.0
 42
-0.28374784
  0
VERTEX
  5
DB6
  8
WHITE
 10
161.67145543000001
 20
166.434554005
 30
0.0
 42
0.29403863
  0
VERTEX
  5
DB7
  8
WHITE
 10
184.21203403999999
 20
172.92303946499999
 30
0.0
 42
0.29403863
  0
VERTEX
  5
DB8
  8
WHITE
 10
187.63838529500001
 20
196.12731101
 30
0.0
 42
-0.22846201
  0
VERTEX
  5
DB9
  8
WHITE
 10
187.65629248499999
 20
196.87774332000001
 30
0.0
 42
-0.22846201
  0
VERTEX
  5
DBA
  8
WHITE
 10
188.25454550000001
 20
197.3311333
 30
0.0
 42
-0.09996486
  0
VERTEX
  5
DBB
  8
WHITE
 10
210.475308455
 20
197.33174561000001
 30
0.0
 42
-0.2288078
  0
VERTEX
  5
DBC
  8
WHITE
 10
211.07410389500001
 20
196.87737738000001
 30
0.0
 42
-0.2288078
  0
VERTEX
  5
DBD
  8
WHITE
 10
211.090595245
 20
196.12588918500001
 30
0.0
 42
0.2947645300000001
  0
VERTEX
  5
DBE
  8
WHITE
 10
214.49128046000001
 20
172.89651355500001
 30
0.0
 42
0.2947645300000001
  0
VERTEX
  5
DBF
  8
WHITE
 10
237.06143016499999
 20
166.43455398500001
 30
0.0
 42
-0.28374786
  0
VERTEX
  5
DC0
  8
WHITE
 10
240.19622186000001
 20
164.60138535999999
 30
0.0
 42
-0.22511832
  0
VERTEX
  5
DC1
  8
WHITE
 10
244.07703909
 20
79.975736699999999
 30
0.0
 42
-0.20092708
  0
VERTEX
  5
DC2
  8
WHITE
 10
242.17313236499999
 20
78.10281157
 30
0.0
 42
-0.03470839
  0
VERTEX
  5
DC3
  8
WHITE
 10
233.58979829500001
 20
75.341666434999993
 30
0.0
 42
-0.29388442
  0
VERTEX
  5
DC4
  8
WHITE
 10
231.82016686
 20
75.947473325000004
 30
0.0
 42
-0.29388442
  0
VERTEX
  5
DC5
  8
WHITE
 10
231.63786411000001
 20
77.809021529999995
 30
0.0
 42
0.21310266
  0
VERTEX
  5
DC6
  8
WHITE
 10
235.54094332
 20
149.84355278999999
 30
0.0
 42
0.22536525
  0
VERTEX
  5
DC7
  8
WHITE
 10
223.39343549
 20
154.98736522999999
 30
0.0
  0
VERTEX
  5
DC8
  8
WHITE
 10
223.04675503000001
 20
154.96860538499999
 30
0.0
  0
VERTEX
  5
DC9
  8
WHITE
 10
222.70063053499999
 20
154.94202716999999
 30
0.0
  0
VERTEX
  5
DCA
  8
WHITE
 10
222.35519422499999
 20
154.90764224500001
 30
0.0
  0
VERTEX
  5
DCB
  8
WHITE
 10
222.010578315
 20
154.86546228
 30
0.0
  0
SEQEND
  5
DCC
  8
WHITE
  0
POLYLINE
  5
2D1
  8
WHITE
 66
     1
 10
0.0
 20
0.0
 30
0.0
 70
     1
  0
VERTEX
  5
DCD
  8
WHITE
 10
273.04783717999999
 20
399.42215034999998
 30
0.0
 42
0.07639783
  0
VERTEX
  5
DCE
  8
WHITE
 10
261.14567126499998
 20
369.82305325999999
 30
0.0
 42
-0.41036087
  0
VERTEX
  5
DCF
  8
WHITE
 10
250.87216538499999
 20
363.35116727500002
 30
0.0
  0
VERTEX
  5
DD0
  8
WHITE
 10
211.66863416000001
 20
371.98025781500002
 30
0.0
 42
-0.24980916
  0
VERTEX
  5
DD1
  8
WHITE
 10
213.78793225000001
 20
384.797578235
 30
0.0
 42
-0.3276202
  0
VERTEX
  5
DD2
  8
WHITE
 10
214.18066503
 20
384.91226936999999
 30
0.0
  0
VERTEX
  5
DD3
  8
WHITE
 10
232.752960215
 20
378.15250757000001
 30
0.0
 42
0.41421329
  0
VERTEX
  5
DD4
  8
WHITE
 10
233.196066535
 20
378.35913219000003
 30
0.0
  0
VERTEX
  5
DD5
  8
WHITE
 10
233.99419377500001
 20
380.55197214499998
 30
0.0
 42
0.41421322
  0
VERTEX
  5
DD6
  8
WHITE
 10
233.78757089000001
 20
380.99507846
 30
0.0
  0
VERTEX
  5
DD7
  8
WHITE
 10
215.40600437500001
 20
387.68541997
 30
0.0
 42
-0.32201592
  0
VERTEX
  5
DD8
  8
WHITE
 10
215.17863515499999
 20
388.01871741999997
 30
0.0
 42
0.24251671
  0
VERTEX
  5
DD9
  8
WHITE
 10
200.75577735499999
 20
417.76579516999988
 30
0.0
 42
-0.32849355
  0
VERTEX
  5
DDA
  8
WHITE
 10
202.502810525
 20
439.16134400499999
 30
0.0
 42
-0.38325308
  0
VERTEX
  5
DDB
  8
WHITE
 10
202.96145168999999
 20
439.21784377
 30
0.0
  0
VERTEX
  5
DDC
  8
WHITE
 10
220.096408615
 20
427.25718391499998
 30
0.0
 42
0.41421329
  0
VERTEX
  5
DDD
  8
WHITE
 10
220.57776942000001
 20
427.34278745
 30
0.0
  0
VERTEX
  5
DDE
  8
WHITE
 10
221.91345006
 20
429.25629751500003
 30
0.0
 42
0.41421336
  0
VERTEX
  5
DDF
  8
WHITE
 10
221.82784645000001
 20
429.73765837000002
 30
0.0
  0
VERTEX
  5
DE0
  8
WHITE
 10
204.80433009000001
 20
441.62052867
 30
0.0
 42
-0.32556523
  0
VERTEX
  5
DE1
  8
WHITE
 10
204.67168931500001
 20
442.00537652499992
 30
0.0
 42
-0.35658782
  0
VERTEX
  5
DE2
  8
WHITE
 10
231.96055833
 20
460.20401981999998
 30
0.0
  0
VERTEX
  5
DE3
  8
WHITE
 10
263.11036360999998
 20
448.8664191449999
 30
0.0
 42
-0.4142131800000001
  0
VERTEX
  5
DE4
  8
WHITE
 10
263.31698728499998
 20
448.42331296999993
 30
0.0
  0
VERTEX
  5
DE5
  8
WHITE
 10
252.42977970000001
 20
418.51095301499998
 30
0.0
 42
0.41421357
  0
VERTEX
  5
DE6
  8
WHITE
 10
252.636402715
 20
418.06784664999992
 30
0.0
  0
VERTEX
  5
DE7
  8
WHITE
 10
254.82924427500001
 20
417.26971772999991
 30
0.0
 42
0.4142133300000001
  0
VERTEX
  5
DE8
  8
WHITE
 10
255.27235063500001
 20
417.47634246500002
 30
0.0
  0
VERTEX
  5
DE9
  8
WHITE
 10
266.15920805500002
 20
447.38774147499993
 30
0.0
 42
-0.41507828
  0
VERTEX
  5
DEA
  8
WHITE
 10
266.60327285
 20
447.59401481999998
 30
0.0
  0
VERTEX
  5
DEB
  8
WHITE
 10
318.23020889999998
 20
428.6305218149999
 30
0.0
 42
-0.20318643
  0
VERTEX
  5
DEC
  8
WHITE
 10
319.21469214000001
 20
427.70796947500003
 30
0.0
 42
-0.20392471
  0
VERTEX
  5
DED
  8
WHITE
 10
319.31352176500002
 20
420.9457648749999
 30
0.0
 42
-0.20392471
  0
VERTEX
  5
DEE
  8
WHITE
 10
314.50920775999998
 20
416.18595971000002
 30
0.0
 42
-0.18285841
  0
VERTEX
  5
DEF
  8
WHITE
 10
313.28595115500002
 20
416.165540405
 30
0.0
 42
0.30540481
  0
VERTEX
  5
DF0
  8
WHITE
 10
278.19733828
 20
407.28865256500001
 30
0.0
 42
0.01909988
  0
VERTEX
  5
DF1
  8
WHITE
 10
273.76100017499999
 20
400.60807771999998
 30
0.0
  0
VERTEX
  5
DF2
  8
WHITE
 10
273.04783717999999
 20
399.42215034999998
 30
0.0
  0
SEQEND
  5
DF3
  8
WHITE
  0
POLYLINE
  5
2F9
  8
WHITE
 66
     1
 10
0.0
 20
0.0
 30
0.0
 70
     1
  0
VERTEX
  5
DF4
  8
WHITE
 10
238.182173175
 20
4.9219299149999989
 30
0.0
  0
VERTEX
  5
DF5
  8
WHITE
 10
223.31295334500001
 20
4.9219299149999989
 30
0.0
 42
-0.29588263
  0
VERTEX
  5
DF6
  8
WHITE
 10
221.73468144500001
 20
5.9455070250000004
 30
0.0
 42
0.14663086
  0
VERTEX
  5
DF7
  8
WHITE
 10
213.638442105
 20
15.340490285
 30
0.0
 42
-0.35461503
  0
VERTEX
  5
DF8
  8
WHITE
 10
212.95143110000001
 20
17.40732015
 30
0.0
  0
VERTEX
  5
DF9
  8
WHITE
 10
218.974175105
 20
33.376571634999998
 30
0.0
 42
-0.20654686
  0
VERTEX
  5
DFA
  8
WHITE
 10
221.82878772999999
 20
36.332186264999997
 30
0.0
 42
-0.10329536
  0
VERTEX
  5
DFB
  8
WHITE
 10
234.11550568000001
 20
38.689488750000002
 30
0.0
 42
-0.23141942
  0
VERTEX
  5
DFC
  8
WHITE
 10
234.38616549
 20
38.551616135000003
 30
0.0
 42
-0.23141942
  0
VERTEX
  5
DFD
  8
WHITE
 10
234.44353072999999
 20
38.253329745000002
 30
0.0
  0
VERTEX
  5
DFE
  8
WHITE
 10
230.373208275
 20
23.244897685000002
 30
0.0
 42
0.4142130800000001
  0
VERTEX
  5
DFF
  8
WHITE
 10
230.61637952000001
 20
22.820747225000002
 30
0.0
  0
VERTEX
  5
E00
  8
WHITE
 10
232.86859473000001
 20
22.20994147
 30
0.0
 42
0.4142149800000001
  0
VERTEX
  5
E01
  8
WHITE
 10
233.29274706999999
 20
22.453113264999999
 30
0.0
  0
VERTEX
  5
E02
  8
WHITE
 10
242.76785537500001
 20
57.390525529999998
 30
0.0
 42
-0.33860903
  0
VERTEX
  5
E03
  8
WHITE
 10
244.436163615
 20
58.666648569999992
 30
0.0
  0
VERTEX
  5
E04
  8
WHITE
 10
259.10583716000002
 20
58.666648569999992
 30
0.0
 42
-0.33279652
  0
VERTEX
  5
E05
  8
WHITE
 10
260.76432711500001
 20
57.425283645
 30
0.0
  0
VERTEX
  5
E06
  8
WHITE
 10
271.13132363
 20
22.135237799999999
 30
0.0
 42
0.41421398
  0
VERTEX
  5
E07
  8
WHITE
 10
271.56046463500002
 20
21.900979499999998
 30
0.0
  0
VERTEX
  5
E08
  8
WHITE
 10
273.79942376000002
 20
22.55871187
 30
0.0
 42
0.41421313
  0
VERTEX
  5
E09
  8
WHITE
 10
274.03368053499997
 20
22.987850195
 30
0.0
  0
VERTEX
  5
E0A
  8
WHITE
 10
269.569356395
 20
38.184748464999998
 30
0.0
 42
-0.4058042000000001
  0
VERTEX
  5
E0B
  8
WHITE
 10
269.79410477499999
 20
38.610945925000003
 30
0.0
 42
-0.34082997
  0
VERTEX
  5
E0C
  8
WHITE
 10
286.63374332500001
 20
32.607772310000001
 30
0.0
  0
VERTEX
  5
E0D
  8
WHITE
 10
290.59502408999998
 20
18.089587245000001
 30
0.0
 42
-0.28749962
  0
VERTEX
  5
E0E
  8
WHITE
 10
280.03161
 20
4.921931644999999
 30
0.0
  0
VERTEX
  5
E0F
  8
WHITE
 10
254.88560261500001
 20
4.9219299149999989
 30
0.0
 42
-0.34133809
  0
VERTEX
  5
E10
  8
WHITE
 10
254.55107164500001
 20
5.1804238050000002
 30
0.0
  0
VERTEX
  5
E11
  8
WHITE
 10
250.98008561500001
 20
18.876903129999999
 30
0.0
 42
0.41421302
  0
VERTEX
  5
E12
  8
WHITE
 10
250.55833541499999
 20
19.124214004999999
 30
0.0
  0
VERTEX
  5
E13
  8
WHITE
 10
248.30025021500001
 20
18.535480884999998
 30
0.0
 42
0.4142137400000001
  0
VERTEX
  5
E14
  8
WHITE
 10
248.05293939500001
 20
18.113730480000001
 30
0.0
  0
VERTEX
  5
E15
  8
WHITE
 10
251.37946615000001
 20
5.3548625449999987
 30
0.0
 42
-0.23227683
  0
VERTEX
  5
E16
  8
WHITE
 10
251.31849597499999
 20
5.0562622050000003
 30
0.0
 42
-0.23227683
  0
VERTEX
  5
E17
  8
WHITE
 10
251.04493643000001
 20
4.9219299149999989
 30
0.0
  0
VERTEX
  5
E18
  8
WHITE
 10
239.565030315
 20
4.9219299149999989
 30
0.0
  0
VERTEX
  5
E19
  8
WHITE
 10
238.182173175
 20
4.9219299149999989
 30
0.0
  0
SEQEND
  5
E1A
  8
WHITE
  0
POLYLINE
  5
321
  8
WHITE
 66
     1
 10
0.0
 20
0.0
 30
0.0
 70
     1
  0
VERTEX
  5
E1B
  8
WHITE
 10
247.30540246499999
 20
185.05047784000001
 30
0.0
 42
0.07306114
  0
VERTEX
  5
E1C
  8
WHITE
 10
242.628352745
 20
185.75899684500001
 30
0.0
  0
VERTEX
  5
E1D
  8
WHITE
 10
237.65862178500001
 20
188.68247446999999
 30
0.0
 42
-0.22062733
  0
VERTEX
  5
E1E
  8
WHITE
 10
237.41049928000001
 20
189.04147533
 30
0.0
 42
-0.22062733
  0
VERTEX
  5
E1F
  8
WHITE
 10
237.524306545
 20
189.46277573
 30
0.0
  0
VERTEX
  5
E20
  8
WHITE
 10
244.22723637499999
 20
197.45101768500001
 30
0.0
 42
0.41421356
  0
VERTEX
  5
E21
  8
WHITE
 10
244.18462536000001
 20
197.93807207
 30
0.0
  0
VERTEX
  5
E22
  8
WHITE
 10
242.39700593000001
 20
199.43806240000001
 30
0.0
 42
0.41421356
  0
VERTEX
  5
E23
  8
WHITE
 10
241.90995327499999
 20
199.39544965499999
 30
0.0
  0
VERTEX
  5
E24
  8
WHITE
 10
235.01038270000001
 20
191.17286264500001
 30
0.0
 42
-0.22062727
  0
VERTEX
  5
E25
  8
WHITE
 10
234.74695740499999
 20
191.04937208000001
 30
0.0
 42
-0.22062727
  0
VERTEX
  5
E26
  8
WHITE
 10
234.482535945
 20
191.17071493
 30
0.0
  0
VERTEX
  5
E27
  8
WHITE
 10
230.20974522
 20
196.17944586499999
 30
0.0
 42
0.16487631
  0
VERTEX
  5
E28
  8
WHITE
 10
225.147343095
 20
205.31910845499999
 30
0.0
 42
-0.26802943
  0
VERTEX
  5
E29
  8
WHITE
 10
224.98965709500001
 20
205.81326434499999
 30
0.0
 42
-0.31732908
  0
VERTEX
  5
E2A
  8
WHITE
 10
231.776474815
 20
212.02745702000001
 30
0.0
 42
0.25554558
  0
VERTEX
  5
E2B
  8
WHITE
 10
243.17207684499999
 20
211.35321515999999
 30
0.0
  0
VERTEX
  5
E2C
  8
WHITE
 10
250.34374328499999
 20
218.04885619000001
 30
0.0
 42
-0.31412543
  0
VERTEX
  5
E2D
  8
WHITE
 10
250.93080802
 20
218.13299412500001
 30
0.0
 42
-0.11639891
  0
VERTEX
  5
E2E
  8
WHITE
 10
260.65020459499999
 20
209.97745345499999
 30
0.0
 42
-0.31412566
  0
VERTEX
  5
E2F
  8
WHITE
 10
260.669285075
 20
209.384694545
 30
0.0
  0
VERTEX
  5
E30
  8
WHITE
 10
255.32071515999999
 20
201.15929776999999
 30
0.0
 42
0.25554558
  0
VERTEX
  5
E31
  8
WHITE
 10
257.96354031999999
 20
190.05390170499999
 30
0.0
 42
-0.31732898
  0
VERTEX
  5
E32
  8
WHITE
 10
253.02227432500001
 20
182.29110548
 30
0.0
 42
-0.26803126
  0
VERTEX
  5
E33
  8
WHITE
 10
252.50824041000001
 20
182.36059026000001
 30
0.0
 42
0.06860521
  0
VERTEX
  5
E34
  8
WHITE
 10
248.65350290000001
 20
184.573359055
 30
0.0
  0
VERTEX
  5
E35
  8
WHITE
 10
248.320471575
 20
184.70372904999999
 30
0.0
  0
VERTEX
  5
E36
  8
WHITE
 10
247.98469631
 20
184.82673432999999
 30
0.0
  0
VERTEX
  5
E37
  8
WHITE
 10
247.64629923499999
 20
184.94233166999999
 30
0.0
  0
VERTEX
  5
E38
  8
WHITE
 10
247.30540246499999
 20
185.05047784000001
 30
0.0
  0
SEQEND
  5
E39
  8
WHITE
  0
POLYLINE
  5
341
  8
WHITE
 66
     1
 10
0.0
 20
0.0
 30
0.0
 70
     1
  0
VERTEX
  5
E3A
  8
WHITE
 10
324.18675129000002
 20
609.44237319000001
 30
0.0
 42
0.03506793
  0
VERTEX
  5
E3B
  8
WHITE
 10
343.82319826999998
 20
596.45685709500003
 30
0.0
 42
-0.22179024
  0
VERTEX
  5
E3C
  8
WHITE
 10
351.64735349
 20
596.59360241499985
 30
0.0
 42
-0.22179024
  0
VERTEX
  5
E3D
  8
WHITE
 10
356.77922380000001
 20
590.68597911500001
 30
0.0
  0
VERTEX
  5
E3E
  8
WHITE
 10
359.47780686999999
 20
593.88408123500005
 30
0.0
 42
-0.33408519
  0
VERTEX
  5
E3F
  8
WHITE
 10
361.46916277499997
 20
598.38613629999986
 30
0.0
 42
-0.33408519
  0
VERTEX
  5
E40
  8
WHITE
 10
366.34693492500008
 20
597.72180758000002
 30
0.0
 42
0.11075824
  0
VERTEX
  5
E41
  8
WHITE
 10
430.72399626499993
 20
637.06530606499985
 30
0.0
 42
-0.31038048
  0
VERTEX
  5
E42
  8
WHITE
 10
439.61858605999998
 20
636.89384804500003
 30
0.0
  0
VERTEX
  5
E43
  8
WHITE
 10
461.81381785500002
 20
634.73496659
 30
0.0
 42
-0.24890834
  0
VERTEX
  5
E44
  8
WHITE
 10
465.10452315999999
 20
631.04626868000003
 30
0.0
 42
-0.24890834
  0
VERTEX
  5
E45
  8
WHITE
 10
463.89416683500002
 20
626.25353759500001
 30
0.0
 42
0.24185565
  0
VERTEX
  5
E46
  8
WHITE
 10
463.48699420999992
 20
624.72706140499986
 30
0.0
 42
0.20999194
  0
VERTEX
  5
E47
  8
WHITE
 10
482.79552771499999
 20
598.12748256999987
 30
0.0
  0
VERTEX
  5
E48
  8
WHITE
 10
482.66730056
 20
572.06618451500003
 30
0.0
  0
VERTEX
  5
E49
  8
WHITE
 10
480.76746745999998
 20
568.15353370000003
 30
0.0
  0
VERTEX
  5
E4A
  8
WHITE
 10
482.10694819999992
 20
565.38877033999995
 30
0.0
 42
-0.37839882
  0
VERTEX
  5
E4B
  8
WHITE
 10
481.49133851499988
 20
563.18446391500004
 30
0.0
 42
-0.3590502199999999
  0
VERTEX
  5
E4C
  8
WHITE
 10
473.65905526500001
 20
559.72640573000001
 30
0.0
 42
-0.3590502199999999
  0
VERTEX
  5
E4D
  8
WHITE
 10
468.77039869999987
 20
566.75519374500004
 30
0.0
  0
VERTEX
  5
E4E
  8
WHITE
 10
468.92455853000001
 20
576.40154499000005
 30
0.0
 42
-0.09486654
  0
VERTEX
  5
E4F
  8
WHITE
 10
459.67735563999992
 20
592.47459592999996
 30
0.0
 42
-0.38904284
  0
VERTEX
  5
E50
  8
WHITE
 10
449.78122760000002
 20
603.68343497499995
 30
0.0
 42
-0.26147699
  0
VERTEX
  5
E51
  8
WHITE
 10
448.04626382499993
 20
606.61975612499998
 30
0.0
 42
-0.15763786
  0
VERTEX
  5
E52
  8
WHITE
 10
437.93753523999999
 20
607.29430170000001
 30
0.0
 42
-0.23629939
  0
VERTEX
  5
E53
  8
WHITE
 10
430.92068525000002
 20
606.42771948999984
 30
0.0
 42
-0.06518281
  0
VERTEX
  5
E54
  8
WHITE
 10
370.56272910500002
 20
567.03806593499996
 30
0.0
 42
-0.2217009
  0
VERTEX
  5
E55
  8
WHITE
 10
365.55275950499998
 20
559.94005545499988
 30
0.0
 42
-0.2217009
  0
VERTEX
  5
E56
  8
WHITE
 10
356.89500428000002
 20
559.21560707499987
 30
0.0
 42
-0.35151195
  0
VERTEX
  5
E57
  8
WHITE
 10
344.517917995
 20
562.53750786000001
 30
0.0
 42
0.32213791
  0
VERTEX
  5
E58
  8
WHITE
 10
335.90249590000002
 20
571.87046862999989
 30
0.0
 42
-0.09490168
  0
VERTEX
  5
E59
  8
WHITE
 10
292.21655958500003
 20
606.76198436499999
 30
0.0
 42
-0.31389665
  0
VERTEX
  5
E5A
  8
WHITE
 10
277.55025874500001
 20
610.17227385000001
 30
0.0
 42
-0.39958179
  0
VERTEX
  5
E5B
  8
WHITE
 10
266.63985117499999
 20
606.84349480000003
 30
0.0
 42
0.23878109
  0
VERTEX
  5
E5C
  8
WHITE
 10
261.43254784499999
 20
605.48824295500003
 30
0.0
 42
0.23878109
  0
VERTEX
  5
E5D
  8
WHITE
 10
259.44362520499999
 20
600.48855252999988
 30
0.0
 42
0.17442097
  0
VERTEX
  5
E5E
  8
WHITE
 10
265.58148542499998
 20
573.44848990000003
 30
0.0
 42
-0.39734568
  0
VERTEX
  5
E5F
  8
WHITE
 10
265.13836961499999
 20
571.11749048000001
 30
0.0
 42
-0.36657726
  0
VERTEX
  5
E60
  8
WHITE
 10
249.41477656999999
 20
572.31832212999996
 30
0.0
 42
0.10768418
  0
VERTEX
  5
E61
  8
WHITE
 10
231.92541536499999
 20
598.27454336999995
 30
0.0
 42
-0.20053409
  0
VERTEX
  5
E62
  8
WHITE
 10
228.13976273500001
 20
627.22065190499995
 30
0.0
 42
-0.33834665
  0
VERTEX
  5
E63
  8
WHITE
 10
228.473338875
 20
627.47556239999994
 30
0.0
  0
VERTEX
  5
E64
  8
WHITE
 10
249.08835260000001
 20
627.47556239999994
 30
0.0
 42
0.4142135500000001
  0
VERTEX
  5
E65
  8
WHITE
 10
249.43406689
 20
627.82127666999997
 30
0.0
  0
VERTEX
  5
E66
  8
WHITE
 10
249.43406689
 20
630.15484811500005
 30
0.0
 42
0.41421354
  0
VERTEX
  5
E67
  8
WHITE
 10
249.08835260000001
 20
630.50056240000004
 30
0.0
  0
VERTEX
  5
E68
  8
WHITE
 10
228.55898786
 20
630.50056240000004
 30
0.0
 42
-0.34389307
  0
VERTEX
  5
E69
  8
WHITE
 10
228.22367417000001
 20
630.76211980999994
 30
0.0
 42
-0.19769754
  0
VERTEX
  5
E6A
  8
WHITE
 10
232.04064682500001
 20
657.00020773000006
 30
0.0
 42
-0.20378694
  0
VERTEX
  5
E6B
  8
WHITE
 10
242.94090090500001
 20
665.01313301000005
 30
0.0
 42
-0.14653353
  0
VERTEX
  5
E6C
  8
WHITE
 10
267.123266925
 20
663.58085758000004
 30
0.0
 42
-0.30472541
  0
VERTEX
  5
E6D
  8
WHITE
 10
267.69045620999998
 20
662.80141679499991
 30
0.0
 42
0.36782979
  0
VERTEX
  5
E6E
  8
WHITE
 10
282.06352176500002
 20
647.13707641999986
 30
0.0
 42
-0.24929502
  0
VERTEX
  5
E6F
  8
WHITE
 10
296.22379906499998
 20
644.59637120000002
 30
0.0
 42
-0.24929502
  0
VERTEX
  5
E70
  8
WHITE
 10
302.03741807500001
 20
631.43694669499985
 30
0.0
 42
0.20730333
  0
VERTEX
  5
E71
  8
WHITE
 10
302.944148095
 20
628.84222452999995
 30
0.0
 42
0.04081695
  0
VERTEX
  5
E72
  8
WHITE
 10
323.092379515
 20
610.28909327999997
 30
0.0
  0
VERTEX
  5
E73
  8
WHITE
 10
324.18675129000002
 20
609.44237319000001
 30
0.0
  0
SEQEND
  5
E74
  8
WHITE
  0
POLYLINE
  5
37D
  8
WHITE
 66
     1
 10
0.0
 20
0.0
 30
0.0
 70
     1
  0
VERTEX
  5
E75
  8
WHITE
 10
338.98153080499998
 20
248.46592433000001
 30
0.0
 42
0.30640092
  0
VERTEX
  5
E76
  8
WHITE
 10
358.52388776499998
 20
344.42118619000001
 30
0.0
 42
-0.26649495
  0
VERTEX
  5
E77
  8
WHITE
 10
358.74207121000001
 20
346.12773293499998
 30
0.0
 42
-0.26649495
  0
VERTEX
  5
E78
  8
WHITE
 10
360.32544560500003
 20
346.80066282000001
 30
0.0
 42
-0.28031349
  0
VERTEX
  5
E79
  8
WHITE
 10
371.35503101500001
 20
338.14085776000002
 30
0.0
 42
-0.27287554
  0
VERTEX
  5
E7A
  8
WHITE
 10
342.42715886000002
 20
218.87997609999999
 30
0.0
 42
-0.38486931
  0
VERTEX
  5
E7B
  8
WHITE
 10
337.80147314999999
 20
218.5776625
 30
0.0
 42
0.3312965
  0
VERTEX
  5
E7C
  8
WHITE
 10
312.07625845000001
 20
219.34179785500001
 30
0.0
 42
0.3312965
  0
VERTEX
  5
E7D
  8
WHITE
 10
303.96021596999998
 20
194.91843940999999
 30
0.0
 42
-0.24991055
  0
VERTEX
  5
E7E
  8
WHITE
 10
303.68380786
 20
193.31572292999999
 30
0.0
 42
-0.24991055
  0
VERTEX
  5
E7F
  8
WHITE
 10
302.19907007500001
 20
192.65190364
 30
0.0
 42
-0.05263826
  0
VERTEX
  5
E80
  8
WHITE
 10
278.96098087500002
 20
196.7494063
 30
0.0
 42
-0.2499106
  0
VERTEX
  5
E81
  8
WHITE
 10
277.792822855
 20
197.88100266000001
 30
0.0
 42
-0.2499106
  0
VERTEX
  5
E82
  8
WHITE
 10
278.08124502499999
 20
199.48160134
 30
0.0
 42
0.3312965
  0
VERTEX
  5
E83
  8
WHITE
 10
278.80793956999997
 20
225.207901005
 30
0.0
 42
0.3312965
  0
VERTEX
  5
E84
  8
WHITE
 10
254.37279576500001
 20
233.28838963499999
 30
0.0
 42
-0.3848692899999999
  0
VERTEX
  5
E85
  8
WHITE
 10
250.129470465
 20
235.154548065
 30
0.0
 42
-0.27287554
  0
VERTEX
  5
E86
  8
WHITE
 10
263.735786975
 20
357.11703359500001
 30
0.0
 42
-0.28031348
  0
VERTEX
  5
E87
  8
WHITE
 10
277.06203283500002
 20
361.48224651999999
 30
0.0
 42
-0.26649512
  0
VERTEX
  5
E88
  8
WHITE
 10
278.31976380999998
 20
360.30835499
 30
0.0
 42
-0.26649512
  0
VERTEX
  5
E89
  8
WHITE
 10
277.94111441500002
 20
358.630101975
 30
0.0
 42
0.31776691
  0
VERTEX
  5
E8A
  8
WHITE
 10
265.11697774999999
 20
258.545151605
 30
0.0
 42
0.39320576
  0
VERTEX
  5
E8B
  8
WHITE
 10
282.91582344
 20
252.37669744499999
 30
0.0
 42
-0.12157984
  0
VERTEX
  5
E8C
  8
WHITE
 10
299.41738645999999
 20
255.27199125499999
 30
0.0
  0
VERTEX
  5
E8D
  8
WHITE
 10
295.21510139999998
 20
231.43964457000001
 30
0.0
  0
VERTEX
  5
E8E
  8
WHITE
 10
298.19414560000001
 20
230.91435937
 30
0.0
  0
VERTEX
  5
E8F
  8
WHITE
 10
302.40671201999999
 20
254.805015755
 30
0.0
 42
-0.12599367
  0
VERTEX
  5
E90
  8
WHITE
 10
317.50838881499999
 20
246.27709626999999
 30
0.0
 42
0.39320577
  0
VERTEX
  5
E91
  8
WHITE
 10
336.34356544000002
 20
245.98598440000001
 30
0.0
 42
0.00640163
  0
VERTEX
  5
E92
  8
WHITE
 10
337.986181655
 20
247.50590104
 30
0.0
  0
VERTEX
  5
E93
  8
WHITE
 10
338.98153080499998
 20
248.46592433000001
 30
0.0
  0
SEQEND
  5
E94
  8
WHITE
  0
POLYLINE
  5
39E
  8
WHITE
 66
     1
 10
0.0
 20
0.0
 30
0.0
 70
     1
  0
VERTEX
  5
E95
  8
WHITE
 10
317.20840143499998
 20
59.453173159999999
 30
0.0
 42
0.09008126
  0
VERTEX
  5
E96
  8
WHITE
 10
329.228189445
 20
61.329359459999992
 30
0.0
 42
0.12778714
  0
VERTEX
  5
E97
  8
WHITE
 10
332.84322639999999
 20
63.743111919999997
 30
0.0
 42
-0.2048188
  0
VERTEX
  5
E98
  8
WHITE
 10
345.97829235500001
 20
69.908616480000006
 30
0.0
 42
-0.20344047
  0
VERTEX
  5
E99
  8
WHITE
 10
346.23049083500001
 20
69.811786835000007
 30
0.0
 42
-0.20344047
  0
VERTEX
  5
E9A
  8
WHITE
 10
346.33604050000002
 20
69.563111699999993
 30
0.0
  0
VERTEX
  5
E9B
  8
WHITE
 10
346.33604050000002
 20
46.06331793999999
 30
0.0
 42
0.41421353
  0
VERTEX
  5
E9C
  8
WHITE
 10
346.68175476499999
 20
45.717603670000003
 30
0.0
  0
VERTEX
  5
E9D
  8
WHITE
 10
349.01532621500002
 20
45.717603670000003
 30
0.0
 42
0.41421336
  0
VERTEX
  5
E9E
  8
WHITE
 10
349.3610405
 20
46.063317734999998
 30
0.0
  0
VERTEX
  5
E9F
  8
WHITE
 10
349.3610405
 20
69.574067404999994
 30
0.0
 42
-0.4146227
  0
VERTEX
  5
EA0
  8
WHITE
 10
349.70723752499998
 20
69.919780954999993
 30
0.0
 42
-0.21353871
  0
VERTEX
  5
EA1
  8
WHITE
 10
363.45885157499998
 20
63.743110919999999
 30
0.0
 42
0.12778714
  0
VERTEX
  5
EA2
  8
WHITE
 10
367.07388911999999
 20
61.329357874999999
 30
0.0
 42
0.26806938
  0
VERTEX
  5
EA3
  8
WHITE
 10
400.51491786499992
 20
67.736579989999996
 30
0.0
 42
0.1052213
  0
VERTEX
  5
EA4
  8
WHITE
 10
403.98950010499988
 20
72.326205110000004
 30
0.0
 42
0.31463565
  0
VERTEX
  5
EA5
  8
WHITE
 10
388.27263029
 20
163.16084481999999
 30
0.0
 42
-0.29327268
  0
VERTEX
  5
EA6
  8
WHITE
 10
387.10251207499999
 20
168.63879951499999
 30
0.0
 42
-0.29327268
  0
VERTEX
  5
EA7
  8
WHITE
 10
391.59499374000001
 20
171.9846561
 30
0.0
 42
-0.10235087
  0
VERTEX
  5
EA8
  8
WHITE
 10
396.98484744500001
 20
171.25589980500001
 30
0.0
 42
-0.12098004
  0
VERTEX
  5
EA9
  8
WHITE
 10
399.05476448500002
 20
169.90219389500001
 30
0.0
 42
-0.39378722
  0
VERTEX
  5
EAA
  8
WHITE
 10
399.12485214499998
 20
43.156289229999999
 30
0.0
 42
-0.32728804
  0
VERTEX
  5
EAB
  8
WHITE
 10
389.08576381
 20
41.241483445
 30
0.0
 42
0.31007586
  0
VERTEX
  5
EAC
  8
WHITE
 10
366.46650417000001
 20
37.655664829999999
 30
0.0
 42
0.31007586
  0
VERTEX
  5
EAD
  8
WHITE
 10
361.67279845500002
 20
15.26125914
 30
0.0
 42
-0.25019146
  0
VERTEX
  5
EAE
  8
WHITE
 10
361.51052444499999
 20
13.641376899999999
 30
0.0
 42
-0.25019146
  0
VERTEX
  5
EAF
  8
WHITE
 10
360.07433880000002
 20
12.8747463
 30
0.0
 42
-0.11561609
  0
VERTEX
  5
EB0
  8
WHITE
 10
336.22774220000002
 20
12.8747448
 30
0.0
 42
-0.25019141
  0
VERTEX
  5
EB1
  8
WHITE
 10
334.79155530499997
 20
13.641375665
 30
0.0
 42
-0.25019141
  0
VERTEX
  5
EB2
  8
WHITE
 10
334.62928012499998
 20
15.261259415
 30
0.0
 42
0.31007586
  0
VERTEX
  5
EB3
  8
WHITE
 10
329.83557510999998
 20
37.655664829999999
 30
0.0
 42
0.31007586
  0
VERTEX
  5
EB4
  8
WHITE
 10
307.21631546499998
 20
41.241483445
 30
0.0
 42
-0.32728804
  0
VERTEX
  5
EB5
  8
WHITE
 10
297.177227765
 20
43.156289805
 30
0.0
 42
-0.39378722
  0
VERTEX
  5
EB6
  8
WHITE
 10
297.24731485500001
 20
169.90219383499999
 30
0.0
 42
-0.12098004
  0
VERTEX
  5
EB7
  8
WHITE
 10
299.31723152500001
 20
171.25590069500001
 30
0.0
 42
-0.10235087
  0
VERTEX
  5
EB8
  8
WHITE
 10
304.70708557
 20
171.98465804
 30
0.0
 42
-0.29327268
  0
VERTEX
  5
EB9
  8
WHITE
 10
309.19956719999999
 20
168.63879951499999
 30
0.0
 42
-0.29327268
  0
VERTEX
  5
EBA
  8
WHITE
 10
308.02944846999998
 20
163.16084527500001
 30
0.0
 42
0.31463565
  0
VERTEX
  5
EBB
  8
WHITE
 10
292.31257872999998
 20
72.326204945000001
 30
0.0
 42
0.1052213
  0
VERTEX
  5
EBC
  8
WHITE
 10
295.78716121999997
 20
67.736579884999998
 30
0.0
 42
0.16333403
  0
VERTEX
  5
EBD
  8
WHITE
 10
315.82554465499999
 20
59.515680750000001
 30
0.0
  0
VERTEX
  5
EBE
  8
WHITE
 10
316.51665522000002
 20
59.477396030000001
 30
0.0
  0
VERTEX
  5
EBF
  8
WHITE
 10
317.20840143499998
 20
59.453173159999999
 30
0.0
  0
SEQEND
  5
EC0
  8
WHITE
  0
POLYLINE
  5
3CB
  8
WHITE
 66
     1
 10
0.0
 20
0.0
 30
0.0
 70
     1
  0
VERTEX
  5
EC1
  8
WHITE
 10
332.72537572499999
 20
460.62545927999997
 30
0.0
 42
0.0784603
  0
VERTEX
  5
EC2
  8
WHITE
 10
319.41167444000001
 20
459.75120751999998
 30
0.0
 42
0.22068385
  0
VERTEX
  5
EC3
  8
WHITE
 10
284.06262700500002
 20
466.66088563499989
 30
0.0
 42
0.17285613
  0
VERTEX
  5
EC4
  8
WHITE
 10
283.57844760500001
 20
466.34110200499993
 30
0.0
 42
-0.29630702
  0
VERTEX
  5
EC5
  8
WHITE
 10
279.92221501
 20
465.00689775500001
 30
0.0
 42
-0.29630702
  0
VERTEX
  5
EC6
  8
WHITE
 10
277.21719582999998
 20
467.80529282499992
 30
0.0
 42
-0.35607503
  0
VERTEX
  5
EC7
  8
WHITE
 10
277.73313375999999
 20
468.76827708500002
 30
0.0
  0
VERTEX
  5
EC8
  8
WHITE
 10
281.69523594999998
 20
470.41915169999987
 30
0.0
 42
-0.12703894
  0
VERTEX
  5
EC9
  8
WHITE
 10
282.12309845999999
 20
470.4803493
 30
0.0
  0
VERTEX
  5
ECA
  8
WHITE
 10
286.29566419000002
 20
470.01673088500002
 30
0.0
 42
0.15458923
  0
VERTEX
  5
ECB
  8
WHITE
 10
286.80762383000001
 20
470.118429655
 30
0.0
  0
VERTEX
  5
ECC
  8
WHITE
 10
291.428652935
 20
472.65999482000001
 30
0.0
 42
-0.20498109
  0
VERTEX
  5
ECD
  8
WHITE
 10
292.10543251500002
 20
472.72686123
 30
0.0
  0
VERTEX
  5
ECE
  8
WHITE
 10
296.23840186000001
 20
471.42171374499992
 30
0.0
 42
0.18422584
  0
VERTEX
  5
ECF
  8
WHITE
 10
297.09931167500002
 20
471.47212407000001
 30
0.0
  0
VERTEX
  5
ED0
  8
WHITE
 10
301.33959544999999
 20
473.38025095500001
 30
0.0
 42
-0.22532654
  0
VERTEX
  5
ED1
  8
WHITE
 10
302.37726426
 20
473.35908276999987
 30
0.0
  0
VERTEX
  5
ED2
  8
WHITE
 10
305.01181898999999
 20
472.04180576499988
 30
0.0
 42
0.21226314
  0
VERTEX
  5
ED3
  8
WHITE
 10
305.99386956000001
 20
471.99725888500001
 30
0.0
  0
VERTEX
  5
ED4
  8
WHITE
 10
310.95474762499998
 20
473.93847216500001
 30
0.0
 42
-0.21226339
  0
VERTEX
  5
ED5
  8
WHITE
 10
311.93680011499998
 20
473.89392524499988
 30
0.0
  0
VERTEX
  5
ED6
  8
WHITE
 10
316.26532027500002
 20
471.72966379500002
 30
0.0
 42
0.16848404
  0
VERTEX
  5
ED7
  8
WHITE
 10
317.05160158000001
 20
471.62701571000002
 30
0.0
  0
VERTEX
  5
ED8
  8
WHITE
 10
324.15888739000002
 20
473.09748941499998
 30
0.0
  0
VERTEX
  5
ED9
  8
WHITE
 10
336.08435179999998
 20
472.31974116999999
 30
0.0
 42
0.15968053
  0
VERTEX
  5
EDA
  8
WHITE
 10
343.02826186999999
 20
479.32817504000002
 30
0.0
 42
0.34258479
  0
VERTEX
  5
EDB
  8
WHITE
 10
342.94568333500001
 20
479.74404043499987
 30
0.0
 42
0.34258479
  0
VERTEX
  5
EDC
  8
WHITE
 10
342.52232903999999
 20
479.76716198499997
 30
0.0
 42
-0.16329658
  0
VERTEX
  5
EDD
  8
WHITE
 10
335.55734552500002
 20
477.75068910999988
 30
0.0
 42
0.10514212
  0
VERTEX
  5
EDE
  8
WHITE
 10
335.06107381499999
 20
477.66673116999988
 30
0.0
  0
VERTEX
  5
EDF
  8
WHITE
 10
331.45688096999999
 20
476.23926062499987
 30
0.0
 42
-0.14920818
  0
VERTEX
  5
EE0
  8
WHITE
 10
330.75274954499997
 20
476.1821908149999
 30
0.0
  0
VERTEX
  5
EE1
  8
WHITE
 10
323.98662313
 20
477.662280055
 30
0.0
 42
0.18060219
  0
VERTEX
  5
EE2
  8
WHITE
 10
323.14863852000002
 20
477.54248474000002
 30
0.0
  0
VERTEX
  5
EE3
  8
WHITE
 10
318.83345871500001
 20
475.18875160499999
 30
0.0
 42
-0.2200837
  0
VERTEX
  5
EE4
  8
WHITE
 10
317.81968355999999
 20
475.12165692999992
 30
0.0
  0
VERTEX
  5
EE5
  8
WHITE
 10
312.66373681499999
 20
477.10471161499999
 30
0.0
 42
0.20011605
  0
VERTEX
  5
EE6
  8
WHITE
 10
311.73282995
 20
477.07878880999999
 30
0.0
  0
VERTEX
  5
EE7
  8
WHITE
 10
307.94739119000002
 20
475.37534024500002
 30
0.0
 42
-0.20994179
  0
VERTEX
  5
EE8
  8
WHITE
 10
306.97420637499999
 20
475.36660068499992
 30
0.0
  0
VERTEX
  5
EE9
  8
WHITE
 10
304.58102343000002
 20
476.39225026999992
 30
0.0
 42
0.18635094
  0
VERTEX
  5
EEA
  8
WHITE
 10
303.70993337499999
 20
476.42398703999987
 30
0.0
  0
VERTEX
  5
EEB
  8
WHITE
 10
297.68073408499998
 20
474.34495235000003
 30
0.0
 42
-0.16492395
  0
VERTEX
  5
EEC
  8
WHITE
 10
296.90364949000002
 20
474.34094764500003
 30
0.0
  0
VERTEX
  5
EED
  8
WHITE
 10
291.30817022999997
 20
476.20610671999998
 30
0.0
 42
0.2314428
  0
VERTEX
  5
EEE
  8
WHITE
 10
290.55543979999999
 20
476.10530223000001
 30
0.0
  0
VERTEX
  5
EEF
  8
WHITE
 10
288.06905747500002
 20
474.44771458500003
 30
0.0
  0
VERTEX
  5
EF0
  8
WHITE
 10
283.17659435500002
 20
472.66863819500003
 30
0.0
 42
-0.18474041
  0
VERTEX
  5
EF1
  8
WHITE
 10
282.55908392999999
 20
472.67888472999988
 30
0.0
  0
VERTEX
  5
EF2
  8
WHITE
 10
280.71513554500001
 20
473.41955684499987
 30
0.0
 42
0.2417199
  0
VERTEX
  5
EF3
  8
WHITE
 10
279.928973885
 20
473.34671728500001
 30
0.0
  0
VERTEX
  5
EF4
  8
WHITE
 10
277.70176601499998
 20
471.92940485499997
 30
0.0
 42
-0.41421356
  0
VERTEX
  5
EF5
  8
WHITE
 10
276.1876312
 20
471.89700206499992
 30
0.0
 42
-0.41421356
  0
VERTEX
  5
EF6
  8
WHITE
 10
276.15522865499997
 20
473.41113666000001
 30
0.0
 42
-0.1416123
  0
VERTEX
  5
EF7
  8
WHITE
 10
294.56919054500003
 20
495.05471766499988
 30
0.0
 42
-0.18192217
  0
VERTEX
  5
EF8
  8
WHITE
 10
295.756178535
 20
495.32587395500002
 30
0.0
 42
0.26073411
  0
VERTEX
  5
EF9
  8
WHITE
 10
321.09655335000002
 20
505.294365965
 30
0.0
 42
-0.25791926
  0
VERTEX
  5
EFA
  8
WHITE
 10
322.64932938499999
 20
505.91468087999999
 30
0.0
 42
0.13713546
  0
VERTEX
  5
EFB
  8
WHITE
 10
354.25919594499999
 20
510.62091867999999
 30
0.0
 42
-0.38904982
  0
VERTEX
  5
EFC
  8
WHITE
 10
358.69222930500001
 20
509.14352920999988
 30
0.0
 42
0.22914815
  0
VERTEX
  5
EFD
  8
WHITE
 10
372.46255001499998
 20
499.45270900000003
 30
0.0
 42
-0.32375015
  0
VERTEX
  5
EFE
  8
WHITE
 10
375.31782707000002
 20
496.57725008999989
 30
0.0
 42
-0.10786313
  0
VERTEX
  5
EFF
  8
WHITE
 10
374.33682491000002
 20
480.03157854
 30
0.0
 42
-0.33602348
  0
VERTEX
  5
F00
  8
WHITE
 10
374.00401804500001
 20
479.779448215
 30
0.0
  0
VERTEX
  5
F01
  8
WHITE
 10
352.13929382499998
 20
479.779448215
 30
0.0
 42
0.41421353
  0
VERTEX
  5
F02
  8
WHITE
 10
351.79357956000001
 20
479.43373393000002
 30
0.0
  0
VERTEX
  5
F03
  8
WHITE
 10
351.79357956000001
 20
477.10016250000001
 30
0.0
 42
0.4142135500000001
  0
VERTEX
  5
F04
  8
WHITE
 10
352.13929382499998
 20
476.75444821499991
 30
0.0
  0
VERTEX
  5
F05
  8
WHITE
 10
369.91125701999999
 20
476.75444821499991
 30
0.0
 42
-0.41421353
  0
VERTEX
  5
F06
  8
WHITE
 10
370.25697129000002
 20
476.40873392999993
 30
0.0
  0
VERTEX
  5
F07
  8
WHITE
 10
370.25697129000002
 20
471.05351592999989
 30
0.0
 42
-0.13908548
  0
VERTEX
  5
F08
  8
WHITE
 10
369.99951728500002
 20
470.14589792999988
 30
0.0
 42
-0.15539101
  0
VERTEX
  5
F09
  8
WHITE
 10
352.10766852
 20
454.77716058499999
 30
0.0
 42
-0.23781352
  0
VERTEX
  5
F0A
  8
WHITE
 10
350.55471889500001
 20
454.87915729999992
 30
0.0
 42
0.10265213
  0
VERTEX
  5
F0B
  8
WHITE
 10
334.10045303499999
 20
460.47748849999999
 30
0.0
  0
VERTEX
  5
F0C
  8
WHITE
 10
333.41351243999998
 20
460.55703170999988
 30
0.0
  0
VERTEX
  5
F0D
  8
WHITE
 10
332.72537572499999
 20
460.62545927999997
 30
0.0
  0
SEQEND
  5
F0E
  8
WHITE
  0
POLYLINE
  5
41A
  8
WHITE
 66
     1
 10
0.0
 20
0.0
 30
0.0
 70
     1
  0
VERTEX
  5
F0F
  8
WHITE
 10
395.086470695
 20
380.29393422999999
 30
0.0
 42
0.16053378
  0
VERTEX
  5
F10
  8
WHITE
 10
386.74764314999999
 20
377.96955661499999
 30
0.0
 42
-0.12157984
  0
VERTEX
  5
F11
  8
WHITE
 10
370.99953754500001
 20
372.25278297
 30
0.0
  0
VERTEX
  5
F12
  8
WHITE
 10
370.99953791500002
 20
396.45278093000002
 30
0.0
  0
VERTEX
  5
F13
  8
WHITE
 10
367.97453791499998
 20
396.45278093000002
 30
0.0
  0
VERTEX
  5
F14
  8
WHITE
 10
367.97453768999998
 20
372.19357479500002
 30
0.0
 42
-0.12599366
  0
VERTEX
  5
F15
  8
WHITE
 10
351.62143230999999
 20
377.96955594999997
 30
0.0
 42
0.39320578
  0
VERTEX
  5
F16
  8
WHITE
 10
333.02185208999998
 20
374.98555055000003
 30
0.0
 42
0.31776691
  0
VERTEX
  5
F17
  8
WHITE
 10
328.27159122
 20
274.19422880000002
 30
0.0
 42
-0.26649507
  0
VERTEX
  5
F18
  8
WHITE
 10
328.35306284500001
 20
272.47572077500001
 30
0.0
 42
-0.26649507
  0
VERTEX
  5
F19
  8
WHITE
 10
326.91059618000003
 20
271.53806501999998
 30
0.0
 42
-0.28031351
  0
VERTEX
  5
F1A
  8
WHITE
 10
314.54481600499997
 20
278.151039965
 30
0.0
 42
-0.27287554
  0
VERTEX
  5
F1B
  8
WHITE
 10
322.32377350000002
 20
400.62335348499988
 30
0.0
 42
-0.38486927
  0
VERTEX
  5
F1C
  8
WHITE
 10
326.82668856499998
 20
401.72431381500002
 30
0.0
 42
0.3312965
  0
VERTEX
  5
F1D
  8
WHITE
 10
352.293770295
 20
405.43892429499999
 30
0.0
 42
0.3312965
  0
VERTEX
  5
F1E
  8
WHITE
 10
356.045440165
 20
430.90057302999998
 30
0.0
 42
-0.24991058
  0
VERTEX
  5
F1F
  8
WHITE
 10
356.03934118500001
 20
432.52693734500002
 30
0.0
 42
-0.24991058
  0
VERTEX
  5
F20
  8
WHITE
 10
357.38625050000002
 20
433.43849267000002
 30
0.0
 42
-0.05263826
  0
VERTEX
  5
F21
  8
WHITE
 10
380.982825515
 20
433.4384943899999
 30
0.0
 42
-0.24991058
  0
VERTEX
  5
F22
  8
WHITE
 10
382.32973617499999
 20
432.52693815499998
 30
0.0
 42
-0.24991058
  0
VERTEX
  5
F23
  8
WHITE
 10
382.32363566999999
 20
430.90057302999998
 30
0.0
 42
0.3312965
  0
VERTEX
  5
F24
  8
WHITE
 10
386.07530553999999
 20
405.43892429499999
 30
0.0
 42
0.3312965
  0
VERTEX
  5
F25
  8
WHITE
 10
411.54238703999988
 20
401.72431418999992
 30
0.0
 42
-0.38486927
  0
VERTEX
  5
F26
  8
WHITE
 10
416.04530205999998
 20
400.62335333499988
 30
0.0
 42
-0.27287554
  0
VERTEX
  5
F27
  8
WHITE
 10
423.8242592499999
 20
278.15104030499998
 30
0.0
 42
-0.28031351
  0
VERTEX
  5
F28
  8
WHITE
 10
411.45847965499991
 20
271.53806501999998
 30
0.0
 42
-0.26649499
  0
VERTEX
  5
F29
  8
WHITE
 10
410.01601319999997
 20
272.47572035500002
 30
0.0
 42
-0.26649499
  0
VERTEX
  5
F2A
  8
WHITE
 10
410.09748278500001
 20
274.19422885500001
 30
0.0
 42
0.31776691
  0
VERTEX
  5
F2B
  8
WHITE
 10
405.3472228
 20
374.98555129499999
 30
0.0
 42
0.19277771
  0
VERTEX
  5
F2C
  8
WHITE
 10
396.463326215
 20
380.16058877500001
 30
0.0
  0
VERTEX
  5
F2D
  8
WHITE
 10
396.12044445499998
 20
380.20683752999997
 30
0.0
  0
VERTEX
  5
F2E
  8
WHITE
 10
395.77656684999999
 20
380.24448845000001
 30
0.0
  0
VERTEX
  5
F2F
  8
WHITE
 10
395.43185504500002
 20
380.27352589999998
 30
0.0
  0
VERTEX
  5
F30
  8
WHITE
 10
395.086470695
 20
380.29393422999999
 30
0.0
  0
SEQEND
  5
F31
  8
WHITE
  0
POLYLINE
  5
43E
  8
WHITE
 66
     1
 10
0.0
 20
0.0
 30
0.0
 70
     1
  0
VERTEX
  5
F32
  8
WHITE
 10
434.88780397999989
 20
179.45629536999999
 30
0.0
 42
0.03073265
  0
VERTEX
  5
F33
  8
WHITE
 10
428.81803358499991
 20
188.30942885499999
 30
0.0
 42
0.39320577
  0
VERTEX
  5
F34
  8
WHITE
 10
410.21845430999991
 20
191.29343351
 30
0.0
 42
-0.11876057
  0
VERTEX
  5
F35
  8
WHITE
 10
394.85654406499998
 20
185.6200207
 30
0.0
 42
-0.21420894
  0
VERTEX
  5
F36
  8
WHITE
 10
394.58636373000002
 20
185.70498418
 30
0.0
 42
-0.21420894
  0
VERTEX
  5
F37
  8
WHITE
 10
394.47034869999999
 20
185.96335719999999
 30
0.0
  0
VERTEX
  5
F38
  8
WHITE
 10
394.47034869999999
 20
209.43094593000001
 30
0.0
 42
0.41421353
  0
VERTEX
  5
F39
  8
WHITE
 10
394.12463444000002
 20
209.77666021499999
 30
0.0
  0
VERTEX
  5
F3A
  8
WHITE
 10
391.79106299
 20
209.77666021499999
 30
0.0
 42
0.4142135500000001
  0
VERTEX
  5
F3B
  8
WHITE
 10
391.44534870000001
 20
209.43094594499999
 30
0.0
  0
VERTEX
  5
F3C
  8
WHITE
 10
391.44534870000001
 20
185.897410455
 30
0.0
 42
-0.21191161
  0
VERTEX
  5
F3D
  8
WHITE
 10
391.33159592999999
 20
185.64106652000001
 30
0.0
 42
-0.21191161
  0
VERTEX
  5
F3E
  8
WHITE
 10
391.06519559499998
 20
185.55341536500001
 30
0.0
 42
-0.12322057
  0
VERTEX
  5
F3F
  8
WHITE
 10
375.09224136500001
 20
191.29343351
 30
0.0
 42
0.39320576
  0
VERTEX
  5
F40
  8
WHITE
 10
356.49266189000002
 20
188.30942906000001
 30
0.0
 42
0.31776691
  0
VERTEX
  5
F41
  8
WHITE
 10
351.742402105
 20
87.518106410000001
 30
0.0
 42
-0.26649508
  0
VERTEX
  5
F42
  8
WHITE
 10
351.82387290000003
 20
85.799598634999995
 30
0.0
 42
-0.26649508
  0
VERTEX
  5
F43
  8
WHITE
 10
350.38140523499999
 20
84.861944304999994
 30
0.0
 42
-0.28031351
  0
VERTEX
  5
F44
  8
WHITE
 10
338.01562506499999
 20
91.474919255000003
 30
0.0
 42
-0.27287554
  0
VERTEX
  5
F45
  8
WHITE
 10
345.79458255499998
 20
213.94723277
 30
0.0
 42
-0.38486931
  0
VERTEX
  5
F46
  8
WHITE
 10
350.29749886500002
 20
215.04819332
 30
0.0
 42
0.33998792
  0
VERTEX
  5
F47
  8
WHITE
 10
375.72022006999998
 20
218.60119217499999
 30
0.0
 42
0.33998792
  0
VERTEX
  5
F48
  8
WHITE
 10
378.81940964
 20
244.08321678999999
 30
0.0
 42
-0.25446251
  0
VERTEX
  5
F49
  8
WHITE
 10
378.75980413500002
 20
245.73457121499999
 30
0.0
 42
-0.25446251
  0
VERTEX
  5
F4A
  8
WHITE
 10
380.11404585999998
 20
246.68143555500001
 30
0.0
 42
-0.14599747
  0
VERTEX
  5
F4B
  8
WHITE
 10
405.20340731999988
 20
246.68067622999999
 30
0.0
 42
-0.25419881
  0
VERTEX
  5
F4C
  8
WHITE
 10
406.55682713499999
 20
245.73526137499999
 30
0.0
 42
-0.25419881
  0
VERTEX
  5
F4D
  8
WHITE
 10
406.49962763500002
 20
244.08532724
 30
0.0
 42
0.33940168
  0
VERTEX
  5
F4E
  8
WHITE
 10
409.61810007000003
 20
218.62928041999999
 30
0.0
 42
0.33940168
  0
VERTEX
  5
F4F
  8
WHITE
 10
435.01319739999991
 20
215.048193355
 30
0.0
 42
-0.38486926
  0
VERTEX
  5
F50
  8
WHITE
 10
439.51611169499989
 20
213.94723177
 30
0.0
 42
-0.27287554
  0
VERTEX
  5
F51
  8
WHITE
 10
447.29507003499998
 20
91.474919594999989
 30
0.0
 42
-0.28031351
  0
VERTEX
  5
F52
  8
WHITE
 10
434.92929043999999
 20
84.861944304999994
 30
0.0
 42
-0.26649508
  0
VERTEX
  5
F53
  8
WHITE
 10
433.48682277500001
 20
85.799598634999995
 30
0.0
 42
-0.26649508
  0
VERTEX
  5
F54
  8
WHITE
 10
433.56829287499988
 20
87.518106840000002
 30
0.0
 42
0.27987487
  0
VERTEX
  5
F55
  8
WHITE
 10
435.60715477500003
 20
178.232587435
 30
0.0
  0
VERTEX
  5
F56
  8
WHITE
 10
434.88780397999989
 20
179.45629536999999
 30
0.0
  0
SEQEND
  5
F57
  8
WHITE
  0
POLYLINE
  5
465
  8
WHITE
 66
     1
 10
0.0
 20
0.0
 30
0.0
 70
     1
  0
VERTEX
  5
F58
  8
WHITE
 10
396.12434422000001
 20
507.14430585500003
 30
0.0
 42
0.16390825
  0
VERTEX
  5
F59
  8
WHITE
 10
382.14461342499999
 20
507.56722783999987
 30
0.0
 42
-0.4061077
  0
VERTEX
  5
F5A
  8
WHITE
 10
380.00308109000002
 20
508.67353788499997
 30
0.0
 42
-0.185658
  0
VERTEX
  5
F5B
  8
WHITE
 10
380.76537242000001
 20
525.716622035
 30
0.0
 42
-0.3188992
  0
VERTEX
  5
F5C
  8
WHITE
 10
382.48040846999999
 20
526.74829202499996
 30
0.0
 42
-0.01204031
  0
VERTEX
  5
F5D
  8
WHITE
 10
400.81310145999993
 20
524.91008079000005
 30
0.0
 42
0.22726166
  0
VERTEX
  5
F5E
  8
WHITE
 10
407.897864395
 20
527.28085421499986
 30
0.0
 42
0.22726166
  0
VERTEX
  5
F5F
  8
WHITE
 10
410.48777634499999
 20
534.28847608000001
 30
0.0
  0
VERTEX
  5
F60
  8
WHITE
 10
409.813639615
 20
541.52281310000001
 30
0.0
 42
-0.36848137
  0
VERTEX
  5
F61
  8
WHITE
 10
412.39540303000001
 20
545.19192646999988
 30
0.0
 42
-0.12643717
  0
VERTEX
  5
F62
  8
WHITE
 10
424.00641388499997
 20
545.19192646999988
 30
0.0
 42
-0.36848138
  0
VERTEX
  5
F63
  8
WHITE
 10
426.58817657999992
 20
541.52281250999988
 30
0.0
  0
VERTEX
  5
F64
  8
WHITE
 10
425.91404135999989
 20
534.28847546999998
 30
0.0
 42
0.22726166
  0
VERTEX
  5
F65
  8
WHITE
 10
428.50395251999998
 20
527.28085421499986
 30
0.0
 42
0.22726166
  0
VERTEX
  5
F66
  8
WHITE
 10
435.58871353000001
 20
524.91008015
 30
0.0
 42
-0.0120403
  0
VERTEX
  5
F67
  8
WHITE
 10
453.92140179
 20
526.74829151999995
 30
0.0
 42
-0.31889997
  0
VERTEX
  5
F68
  8
WHITE
 10
455.63644421499993
 20
525.71662115499987
 30
0.0
 42
-0.18565799
  0
VERTEX
  5
F69
  8
WHITE
 10
456.39873419000003
 20
508.6735384349999
 30
0.0
 42
-0.4061077
  0
VERTEX
  5
F6A
  8
WHITE
 10
454.25720355999999
 20
507.56722801000001
 30
0.0
 42
0.295396
  0
VERTEX
  5
F6B
  8
WHITE
 10
431.37704397499988
 20
500.99360467499997
 30
0.0
 42
-0.28966599
  0
VERTEX
  5
F6C
  8
WHITE
 10
419.78236816999998
 20
492.38898210000002
 30
0.0
 42
-0.20861668
  0
VERTEX
  5
F6D
  8
WHITE
 10
419.52144429499998
 20
492.48034173500002
 30
0.0
 42
-0.20861668
  0
VERTEX
  5
F6E
  8
WHITE
 10
419.41090845999992
 20
492.73373758000002
 30
0.0
  0
VERTEX
  5
F6F
  8
WHITE
 10
419.41090845999992
 20
509.34846194499988
 30
0.0
 42
0.41421356
  0
VERTEX
  5
F70
  8
WHITE
 10
419.06519417499987
 20
509.69417622999998
 30
0.0
  0
VERTEX
  5
F71
  8
WHITE
 10
416.73162274499992
 20
509.69417622999998
 30
0.0
 42
0.41421335
  0
VERTEX
  5
F72
  8
WHITE
 10
416.38590846
 20
509.348462165
 30
0.0
  0
VERTEX
  5
F73
  8
WHITE
 10
416.38590846
 20
492.792994755
 30
0.0
 42
-0.21464906
  0
VERTEX
  5
F74
  8
WHITE
 10
416.26945824500001
 20
492.53423550000002
 30
0.0
 42
-0.21464906
  0
VERTEX
  5
F75
  8
WHITE
 10
415.99855766000002
 20
492.44979689999991
 30
0.0
 42
-0.27719027
  0
VERTEX
  5
F76
  8
WHITE
 10
405.02477294499988
 20
500.99360467499997
 30
0.0
 42
0.10938096
  0
VERTEX
  5
F77
  8
WHITE
 10
397.40757784499999
 20
506.62161602999993
 30
0.0
  0
VERTEX
  5
F78
  8
WHITE
 10
396.77009484500002
 20
506.89310969500002
 30
0.0
  0
VERTEX
  5
F79
  8
WHITE
 10
396.12434422000001
 20
507.14430585500003
 30
0.0
  0
SEQEND
  5
F7A
  8
WHITE
  0
POLYLINE
  5
489
  8
WHITE
 66
     1
 10
0.0
 20
0.0
 30
0.0
 70
     1
  0
VERTEX
  5
F7B
  8
WHITE
 10
493.89181082499999
 20
418.10298777000003
 30
0.0
 42
0.13936472
  0
VERTEX
  5
F7C
  8
WHITE
 10
479.66816706999992
 20
399.85900342000002
 30
0.0
 42
-0.20185407
  0
VERTEX
  5
F7D
  8
WHITE
 10
473.403313115
 20
392.21104035500002
 30
0.0
 42
-0.20185407
  0
VERTEX
  5
F7E
  8
WHITE
 10
463.55503179999988
 20
391.34438667500001
 30
0.0
 42
-0.32590882
  0
VERTEX
  5
F7F
  8
WHITE
 10
463.31497195999992
 20
391.67356073500002
 30
0.0
  0
VERTEX
  5
F80
  8
WHITE
 10
463.31497195999992
 20
419.6241581999999
 30
0.0
 42
0.41421353
  0
VERTEX
  5
F81
  8
WHITE
 10
462.96925769000001
 20
419.969872485
 30
0.0
  0
VERTEX
  5
F82
  8
WHITE
 10
460.63568624499999
 20
419.969872485
 30
0.0
 42
0.4142135500000001
  0
VERTEX
  5
F83
  8
WHITE
 10
460.28997195999989
 20
419.62415822000003
 30
0.0
  0
VERTEX
  5
F84
  8
WHITE
 10
460.28997195999989
 20
391.49621125499999
 30
0.0
 42
-0.34003288
  0
VERTEX
  5
F85
  8
WHITE
 10
460.0330421299999
 20
391.16209154500001
 30
0.0
 42
-0.40596811
  0
VERTEX
  5
F86
  8
WHITE
 10
444.541776325
 20
399.85900294999999
 30
0.0
 42
0.27658364
  0
VERTEX
  5
F87
  8
WHITE
 10
409.82241918499989
 20
426.02709591500002
 30
0.0
 42
-0.20703061
  0
VERTEX
  5
F88
  8
WHITE
 10
397.7679627
 20
430.74090859499989
 30
0.0
 42
-0.20703061
  0
VERTEX
  5
F89
  8
WHITE
 10
392.94960177000002
 20
442.75395787500003
 30
0.0
 42
-0.4063733100000001
  0
VERTEX
  5
F8A
  8
WHITE
 10
393.29519324500001
 20
443.09039345500003
 30
0.0
  0
VERTEX
  5
F8B
  8
WHITE
 10
420.5340218149999
 20
443.09039345500003
 30
0.0
 42
0.4142132700000001
  0
VERTEX
  5
F8C
  8
WHITE
 10
420.8797361
 20
443.43610772
 30
0.0
  0
VERTEX
  5
F8D
  8
WHITE
 10
420.8797361
 20
445.76967917000002
 30
0.0
 42
0.4142135500000001
  0
VERTEX
  5
F8E
  8
WHITE
 10
420.5340218149999
 20
446.115393455
 30
0.0
  0
VERTEX
  5
F8F
  8
WHITE
 10
393.32293679999998
 20
446.115393455
 30
0.0
 42
-0.39535666
  0
VERTEX
  5
F90
  8
WHITE
 10
392.97794752499999
 20
446.43871827999999
 30
0.0
 42
-0.21198439
  0
VERTEX
  5
F91
  8
WHITE
 10
397.55031695999998
 20
458.84998050500002
 30
0.0
 42
-0.21198439
  0
VERTEX
  5
F92
  8
WHITE
 10
409.82241900999992
 20
463.78369110499989
 30
0.0
 42
0.27658364
  0
VERTEX
  5
F93
  8
WHITE
 10
444.541775245
 20
489.95178414499992
 30
0.0
 42
-0.40596812
  0
VERTEX
  5
F94
  8
WHITE
 10
460.03304201999993
 20
498.64869495999989
 30
0.0
 42
-0.34003288
  0
VERTEX
  5
F95
  8
WHITE
 10
460.28997195999989
 20
498.31457565499989
 30
0.0
  0
VERTEX
  5
F96
  8
WHITE
 10
460.28997195999989
 20
470.18662871499993
 30
0.0
 42
0.41421353
  0
VERTEX
  5
F97
  8
WHITE
 10
460.63568622499997
 20
469.84091443
 30
0.0
  0
VERTEX
  5
F98
  8
WHITE
 10
462.96925767499999
 20
469.84091443
 30
0.0
 42
0.41421322
  0
VERTEX
  5
F99
  8
WHITE
 10
463.31497195999992
 20
470.18662831500001
 30
0.0
  0
VERTEX
  5
F9A
  8
WHITE
 10
463.31497195999992
 20
498.13722595500002
 30
0.0
 42
-0.32590882
  0
VERTEX
  5
F9B
  8
WHITE
 10
463.55503185499992
 20
498.46639994999992
 30
0.0
 42
-0.20185407
  0
VERTEX
  5
F9C
  8
WHITE
 10
473.40331321500003
 20
497.59974650999987
 30
0.0
 42
-0.20185407
  0
VERTEX
  5
F9D
  8
WHITE
 10
479.66816706999992
 20
489.95178349499997
 30
0.0
 42
0.27658364
  0
VERTEX
  5
F9E
  8
WHITE
 10
514.38752472500005
 20
463.783689385
 30
0.0
 42
-0.21198439
  0
VERTEX
  5
F9F
  8
WHITE
 10
526.65962695999985
 20
458.84998050500002
 30
0.0
 42
-0.21198439
  0
VERTEX
  5
FA0
  8
WHITE
 10
531.23199563000003
 20
446.43871841999987
 30
0.0
 42
-0.39535666
  0
VERTEX
  5
FA1
  8
WHITE
 10
530.88700710000001
 20
446.115393455
 30
0.0
  0
VERTEX
  5
FA2
  8
WHITE
 10
503.67592209999992
 20
446.115393455
 30
0.0
 42
0.4142135500000001
  0
VERTEX
  5
FA3
  8
WHITE
 10
503.33020781499999
 20
445.76967918999998
 30
0.0
  0
VERTEX
  5
FA4
  8
WHITE
 10
503.33020781499999
 20
443.43610774500002
 30
0.0
 42
0.41421353
  0
VERTEX
  5
FA5
  8
WHITE
 10
503.67592208500002
 20
443.09039345500003
 30
0.0
  0
VERTEX
  5
FA6
  8
WHITE
 10
530.91475067500005
 20
443.09039345500003
 30
0.0
 42
-0.4063733100000001
  0
VERTEX
  5
FA7
  8
WHITE
 10
531.26034042000003
 20
442.75395782499999
 30
0.0
 42
-0.20703061
  0
VERTEX
  5
FA8
  8
WHITE
 10
526.44198091500004
 20
430.740908295
 30
0.0
 42
-0.20703061
  0
VERTEX
  5
FA9
  8
WHITE
 10
514.38752387999989
 20
426.02709594499993
 30
0.0
 42
0.1238009
  0
VERTEX
  5
FAA
  8
WHITE
 10
495.02361982000002
 20
418.90294109999991
 30
0.0
  0
VERTEX
  5
FAB
  8
WHITE
 10
494.45443906999992
 20
418.507599825
 30
0.0
  0
VERTEX
  5
FAC
  8
WHITE
 10
493.89181082499999
 20
418.10298777000003
 30
0.0
  0
SEQEND
  5
FAD
  8
WHITE
  0
POLYLINE
  5
4BD
  8
WHITE
 66
     1
 10
0.0
 20
0.0
 30
0.0
 70
     1
  0
VERTEX
  5
FAE
  8
WHITE
 10
436.18859300499992
 20
34.349953505000002
 30
0.0
 42
0.07553113
  0
VERTEX
  5
FAF
  8
WHITE
 10
431.38875835499988
 20
35.277041355000001
 30
0.0
 42
-0.26802953
  0
VERTEX
  5
FB0
  8
WHITE
 10
430.95032548
 20
35.554227654999998
 30
0.0
 42
-0.31732903
  0
VERTEX
  5
FB1
  8
WHITE
 10
432.15492353500002
 20
44.677058610000003
 30
0.0
 42
0.25554558
  0
VERTEX
  5
FB2
  8
WHITE
 10
441.31785615000001
 20
51.485510605000002
 30
0.0
  0
VERTEX
  5
FB3
  8
WHITE
 10
442.50779559499989
 20
61.224525100000001
 30
0.0
 42
-0.31412626
  0
VERTEX
  5
FB4
  8
WHITE
 10
442.90343164500001
 20
61.666339020000002
 30
0.0
 42
-0.11639891
  0
VERTEX
  5
FB5
  8
WHITE
 10
455.59120170999989
 20
61.66633943499999
 30
0.0
 42
-0.31412537
  0
VERTEX
  5
FB6
  8
WHITE
 10
455.98683512999992
 20
61.224524614999993
 30
0.0
  0
VERTEX
  5
FB7
  8
WHITE
 10
457.17677710999999
 20
51.485510605000002
 30
0.0
 42
0.25554558
  0
VERTEX
  5
FB8
  8
WHITE
 10
466.33970875499989
 20
44.677057789999999
 30
0.0
 42
-0.317329
  0
VERTEX
  5
FB9
  8
WHITE
 10
467.54430781000002
 20
35.554226415000002
 30
0.0
 42
-0.26802984
  0
VERTEX
  5
FBA
  8
WHITE
 10
467.10587322499993
 20
35.277040065000001
 30
0.0
 42
0.16487631
  0
VERTEX
  5
FBB
  8
WHITE
 10
457.35298735999999
 20
31.529702
 30
0.0
  0
VERTEX
  5
FBC
  8
WHITE
 10
450.86028978000002
 20
30.439288430000001
 30
0.0
 42
-0.22062721
  0
VERTEX
  5
FBD
  8
WHITE
 10
450.57973385000003
 20
30.516302275000001
 30
0.0
 42
-0.22062721
  0
VERTEX
  5
FBE
  8
WHITE
 10
450.45731662999998
 20
30.780228000000001
 30
0.0
  0
VERTEX
  5
FBF
  8
WHITE
 10
450.45731662999998
 20
41.5140533
 30
0.0
 42
0.41421353
  0
VERTEX
  5
FC0
  8
WHITE
 10
450.11160234499988
 20
41.859767584999993
 30
0.0
  0
VERTEX
  5
FC1
  8
WHITE
 10
447.77803079499989
 20
41.859767584999993
 30
0.0
 42
0.41421346
  0
VERTEX
  5
FC2
  8
WHITE
 10
447.43231663
 20
41.5140533
 30
0.0
  0
VERTEX
  5
FC3
  8
WHITE
 10
447.43231663
 20
30.881835134999999
 30
0.0
 42
-0.22062724
  0
VERTEX
  5
FC4
  8
WHITE
 10
447.30989936499992
 20
30.617909395000002
 30
0.0
 42
-0.22062724
  0
VERTEX
  5
FC5
  8
WHITE
 10
447.02934341500003
 20
30.540895185
 30
0.0
  0
VERTEX
  5
FC6
  8
WHITE
 10
441.14164524
 20
31.529702990000001
 30
0.0
 42
0.06658649
  0
VERTEX
  5
FC7
  8
WHITE
 10
437.48721004499998
 20
33.824275204999999
 30
0.0
  0
VERTEX
  5
FC8
  8
WHITE
 10
437.16685706499987
 20
33.966158204999999
 30
0.0
  0
VERTEX
  5
FC9
  8
WHITE
 10
436.84356129499992
 20
34.10109606000001
 30
0.0
  0
VERTEX
  5
FCA
  8
WHITE
 10
436.51743564499992
 20
34.229043064999999
 30
0.0
  0
VERTEX
  5
FCB
  8
WHITE
 10
436.18859300499992
 20
34.349953505000002
 30
0.0
  0
SEQEND
  5
FCC
  8
WHITE
  0
POLYLINE
  5
4DD
  8
WHITE
 66
     1
 10
0.0
 20
0.0
 30
0.0
 70
     1
  0
VERTEX
  5
FCD
  8
WHITE
 10
547.90935654500004
 20
247.99078809
 30
0.0
 42
0.15115547
  0
VERTEX
  5
FCE
  8
WHITE
 10
567.45886708
 20
252.744928915
 30
0.0
 42
0.10522127
  0
VERTEX
  5
FCF
  8
WHITE
 10
571.67764148000003
 20
256.66147040499999
 30
0.0
 42
0.26803816
  0
VERTEX
  5
FD0
  8
WHITE
 10
578.84225796500004
 20
336.86324810999997
 30
0.0
 42
-0.41421356
  0
VERTEX
  5
FD1
  8
WHITE
 10
582.30697090499984
 20
344.964801765
 30
0.0
 42
-0.41421356
  0
VERTEX
  5
FD2
  8
WHITE
 10
590.40852362500004
 20
341.50009261999998
 30
0.0
 42
-0.35142417
  0
VERTEX
  5
FD3
  8
WHITE
 10
561.82159609999985
 20
228.779448315
 30
0.0
 42
-0.32728797
  0
VERTEX
  5
FD4
  8
WHITE
 10
551.60252323500004
 20
228.63700219
 30
0.0
 42
0.3010212
  0
VERTEX
  5
FD5
  8
WHITE
 10
528.06738650499994
 20
228.88905146499999
 30
0.0
 42
0.3010212
  0
VERTEX
  5
FD6
  8
WHITE
 10
518.64384202500003
 20
207.321413205
 30
0.0
 42
-0.2161086
  0
VERTEX
  5
FD7
  8
WHITE
 10
518.35817847999999
 20
206.21566487000001
 30
0.0
 42
-0.2161086
  0
VERTEX
  5
FD8
  8
WHITE
 10
517.33822775500005
 20
205.701872245
 30
0.0
 42
-0.06237111
  0
VERTEX
  5
FD9
  8
WHITE
 10
495.33856446499988
 20
209.579109845
 30
0.0
 42
-0.21677494
  0
VERTEX
  5
FDA
  8
WHITE
 10
494.55457725000002
 20
210.41396291999999
 30
0.0
 42
-0.21677494
  0
VERTEX
  5
FDB
  8
WHITE
 10
494.66879911500001
 20
211.553510735
 30
0.0
 42
0.30243794
  0
VERTEX
  5
FDC
  8
WHITE
 10
493.24217018000002
 20
235.09022827000001
 30
0.0
 42
0.30243794
  0
VERTEX
  5
FDD
  8
WHITE
 10
470.976855785
 20
242.85348257499999
 30
0.0
 42
-0.32728802
  0
VERTEX
  5
FDE
  8
WHITE
 10
461.42278642999997
 20
246.48246699000001
 30
0.0
 42
-0.35142417
  0
VERTEX
  5
FDF
  8
WHITE
 10
473.11259016000002
 20
362.182531025
 30
0.0
 42
-0.41421356
  0
VERTEX
  5
FE0
  8
WHITE
 10
481.91056428500002
 20
362.66739906999999
 30
0.0
 42
-0.41421356
  0
VERTEX
  5
FE1
  8
WHITE
 10
482.39543229499992
 20
353.86942500499998
 30
0.0
 42
0.26803816
  0
VERTEX
  5
FE2
  8
WHITE
 10
461.697344875
 20
276.05396301500002
 30
0.0
 42
0.10522126
  0
VERTEX
  5
FE3
  8
WHITE
 10
464.32215964
 20
270.930711385
 30
0.0
 42
0.26806938
  0
VERTEX
  5
FE4
  8
WHITE
 10
496.14254168500003
 20
258.81385605000003
 30
0.0
 42
0.12778716
  0
VERTEX
  5
FE5
  8
WHITE
 10
500.12180216500002
 20
260.56319430000002
 30
0.0
 42
-0.20481879
  0
VERTEX
  5
FE6
  8
WHITE
 10
514.12794523499997
 20
264.354151065
 30
0.0
 42
-0.20344025
  0
VERTEX
  5
FE7
  8
WHITE
 10
514.35949755499996
 20
264.21499851499999
 30
0.0
 42
-0.20344025
  0
VERTEX
  5
FE8
  8
WHITE
 10
514.42026229999988
 20
263.95177241499999
 30
0.0
  0
VERTEX
  5
FE9
  8
WHITE
 10
510.33956573500001
 20
240.80899371500001
 30
0.0
 42
0.4142137100000001
  0
VERTEX
  5
FEA
  8
WHITE
 10
510.61999536500002
 20
240.40849893000001
 30
0.0
  0
VERTEX
  5
FEB
  8
WHITE
 10
512.91811471499989
 20
240.00327955500001
 30
0.0
 42
0.4142134000000001
  0
VERTEX
  5
FEC
  8
WHITE
 10
513.31860916000005
 20
240.283709155
 30
0.0
  0
VERTEX
  5
FED
  8
WHITE
 10
517.40120876000003
 20
263.43727662999999
 30
0.0
 42
-0.41462244
  0
VERTEX
  5
FEE
  8
WHITE
 10
517.80217859499999
 20
263.71762180500002
 30
0.0
 42
-0.21353873
  0
VERTEX
  5
FEF
  8
WHITE
 10
530.27230951000001
 20
255.24684673499999
 30
0.0
 42
0.12778712
  0
VERTEX
  5
FF0
  8
WHITE
 10
533.41328080499989
 20
252.24202027999999
 30
0.0
 42
0.10208136
  0
VERTEX
  5
FF1
  8
WHITE
 10
546.53048004499999
 20
248.10384787500001
 30
0.0
  0
VERTEX
  5
FF2
  8
WHITE
 10
547.21934377499986
 20
248.04031115500001
 30
0.0
  0
VERTEX
  5
FF3
  8
WHITE
 10
547.90935654500004
 20
247.99078809
 30
0.0
  0
SEQEND
  5
FF4
  8
WHITE
  0
POLYLINE
  5
506
  8
WHITE
 66
     1
 10
0.0
 20
0.0
 30
0.0
 70
     1
  0
VERTEX
  5
FF5
  8
WHITE
 10
577.05088425999986
 20
62.288403039999999
 30
0.0
 42
0.18356948
  0
VERTEX
  5
FF6
  8
WHITE
 10
599.76206024999988
 20
70.579402755000004
 30
0.0
 42
0.10522127
  0
VERTEX
  5
FF7
  8
WHITE
 10
603.23664097999995
 20
75.169025779999984
 30
0.0
 42
0.26803816
  0
VERTEX
  5
FF8
  8
WHITE
 10
596.36551770000005
 20
155.39648104
 30
0.0
 42
-0.41421356
  0
VERTEX
  5
FF9
  8
WHITE
 10
598.37077238500001
 20
163.97659611
 30
0.0
 42
-0.41421356
  0
VERTEX
  5
FFA
  8
WHITE
 10
606.95088619499995
 20
161.97134241500001
 30
0.0
 42
-0.35142417
  0
VERTEX
  5
FFB
  8
WHITE
 10
598.37199392000002
 20
45.999109019999999
 30
0.0
 42
-0.32728804
  0
VERTEX
  5
FFC
  8
WHITE
 10
588.33290517
 20
44.084304735000003
 30
0.0
 42
0.3010212
  0
VERTEX
  5
FFD
  8
WHITE
 10
565.11155217500004
 20
40.245690920000001
 30
0.0
 42
0.3010212
  0
VERTEX
  5
FFE
  8
WHITE
 10
559.57635413499997
 20
17.369332409999998
 30
0.0
 42
-0.21610866
  0
VERTEX
  5
FFF
  8
WHITE
 10
559.48704176000001
 20
16.230777965000001
 30
0.0
 42
-0.21610866
  0
VERTEX
  5
1000
  8
WHITE
 10
558.57180493999988
 20
15.547678384999999
 30
0.0
 42
-0.06237111
  0
VERTEX
  5
1001
  8
WHITE
 10
536.23309223499984
 20
15.545810475
 30
0.0
 42
-0.21677492
  0
VERTEX
  5
1002
  8
WHITE
 10
535.31604499499986
 20
16.231842279999999
 30
0.0
 42
-0.21677492
  0
VERTEX
  5
1003
  8
WHITE
 10
535.23065139000005
 20
17.373911984999999
 30
0.0
 42
0.30243794
  0
VERTEX
  5
1004
  8
WHITE
 10
529.73858813000004
 20
40.305322359999991
 30
0.0
 42
0.30243794
  0
VERTEX
  5
1005
  8
WHITE
 10
506.46345892999989
 20
44.084304115000002
 30
0.0
 42
-0.32728806
  0
VERTEX
  5
1006
  8
WHITE
 10
496.42437036500002
 20
45.999110479999999
 30
0.0
 42
-0.35142417
  0
VERTEX
  5
1007
  8
WHITE
 10
487.84547459999999
 20
161.97134359500001
 30
0.0
 42
-0.41421356
  0
VERTEX
  5
1008
  8
WHITE
 10
496.42559127499987
 20
163.97659758
 30
0.0
 42
-0.41421356
  0
VERTEX
  5
1009
  8
WHITE
 10
498.43084504500001
 20
155.39648104
 30
0.0
 42
0.26803816
  0
VERTEX
  5
100A
  8
WHITE
 10
491.55972132999989
 20
75.169025614999995
 30
0.0
 42
0.10522126
  0
VERTEX
  5
100B
  8
WHITE
 10
495.03430208999998
 20
70.579402285
 30
0.0
 42
0.26806938
  0
VERTEX
  5
100C
  8
WHITE
 10
528.47533119000002
 20
64.172179834999994
 30
0.0
 42
0.12778716
  0
VERTEX
  5
100D
  8
WHITE
 10
532.09036871000001
 20
66.585932400000004
 30
0.0
 42
-0.21353872
  0
VERTEX
  5
100E
  8
WHITE
 10
545.84198421500002
 20
72.762602005000005
 30
0.0
 42
-0.4146227
  0
VERTEX
  5
100F
  8
WHITE
 10
546.18818137499989
 20
72.416888055000001
 30
0.0
  0
VERTEX
  5
1010
  8
WHITE
 10
546.18818137499989
 20
48.906138630000001
 30
0.0
 42
0.4142135500000001
  0
VERTEX
  5
1011
  8
WHITE
 10
546.53389563999997
 20
48.560424345000001
 30
0.0
  0
VERTEX
  5
1012
  8
WHITE
 10
548.86746708999999
 20
48.560424345000001
 30
0.0
 42
0.41421353
  0
VERTEX
  5
1013
  8
WHITE
 10
549.21318137499986
 20
48.906138609999999
 30
0.0
  0
VERTEX
  5
1014
  8
WHITE
 10
549.21318137499986
 20
72.405932370000002
 30
0.0
 42
-0.20344047
  0
VERTEX
  5
1015
  8
WHITE
 10
549.31873103999988
 20
72.654607505000001
 30
0.0
 42
-0.20344047
  0
VERTEX
  5
1016
  8
WHITE
 10
549.570929535
 20
72.751437550000006
 30
0.0
 42
-0.2048188
  0
VERTEX
  5
1017
  8
WHITE
 10
562.70599569000001
 20
66.585932349999993
 30
0.0
 42
0.12778713
  0
VERTEX
  5
1018
  8
WHITE
 10
566.32103242999995
 20
64.172180130000001
 30
0.0
 42
0.07031002
  0
VERTEX
  5
1019
  8
WHITE
 10
575.66733127999998
 20
62.334636420000002
 30
0.0
  0
VERTEX
  5
101A
  8
WHITE
 10
576.35887269499995
 20
62.304484969999997
 30
0.0
  0
VERTEX
  5
101B
  8
WHITE
 10
577.05088425999986
 20
62.288403039999999
 30
0.0
  0
SEQEND
  5
101C
  8
WHITE
  0
POLYLINE
  5
52F
  8
WHITE
 66
     1
 10
0.0
 20
0.0
 30
0.0
 70
     1
  0
VERTEX
  5
101D
  8
WHITE
 10
608.89849832499999
 20
404.28260195000001
 30
0.0
 42
0.07521408
  0
VERTEX
  5
101E
  8
WHITE
 10
598.88871137000001
 20
402.41585398000001
 30
0.0
 42
0.12778715
  0
VERTEX
  5
101F
  8
WHITE
 10
595.27367463500002
 20
400.00210186499999
 30
0.0
 42
-0.20481881
  0
VERTEX
  5
1020
  8
WHITE
 10
582.13860785999987
 20
393.83659704000002
 30
0.0
 42
-0.20344024
  0
VERTEX
  5
1021
  8
WHITE
 10
581.88640976500005
 20
393.93342691999999
 30
0.0
 42
-0.20344024
  0
VERTEX
  5
1022
  8
WHITE
 10
581.78086031500004
 20
394.18210184499998
 30
0.0
  0
VERTEX
  5
1023
  8
WHITE
 10
581.78086031500004
 20
417.68189558499989
 30
0.0
 42
0.41421354
  0
VERTEX
  5
1024
  8
WHITE
 10
581.43514603000006
 20
418.02760986999999
 30
0.0
  0
VERTEX
  5
1025
  8
WHITE
 10
579.10157458499998
 20
418.02760986999999
 30
0.0
 42
0.4142135500000001
  0
VERTEX
  5
1026
  8
WHITE
 10
578.75586031499995
 20
417.68189558499989
 30
0.0
  0
VERTEX
  5
1027
  8
WHITE
 10
578.75586031499995
 20
394.17114615499997
 30
0.0
 42
-0.4146227200000001
  0
VERTEX
  5
1028
  8
WHITE
 10
578.40966329499986
 20
393.825434315
 30
0.0
 42
-0.21353873
  0
VERTEX
  5
1029
  8
WHITE
 10
564.65804795500003
 20
400.00210320500003
 30
0.0
 42
0.12778714
  0
VERTEX
  5
102A
  8
WHITE
 10
561.04301098999997
 20
402.41585557500002
 30
0.0
 42
0.26806937
  0
VERTEX
  5
102B
  8
WHITE
 10
527.60198276000006
 20
396.00863365999999
 30
0.0
 42
0.1052213
  0
VERTEX
  5
102C
  8
WHITE
 10
524.12740026999995
 20
391.41900859999998
 30
0.0
 42
0.31463565
  0
VERTEX
  5
102D
  8
WHITE
 10
539.8442705299999
 20
300.58436872499999
 30
0.0
 42
-0.29327265
  0
VERTEX
  5
102E
  8
WHITE
 10
541.01438852000001
 20
295.10641516499999
 30
0.0
 42
-0.29327265
  0
VERTEX
  5
102F
  8
WHITE
 10
536.52190708000001
 20
291.76055744500002
 30
0.0
 42
-0.10235088
  0
VERTEX
  5
1030
  8
WHITE
 10
531.13205295
 20
292.48931389000001
 30
0.0
 42
-0.12098001
  0
VERTEX
  5
1031
  8
WHITE
 10
529.06213633499988
 20
293.84301964999997
 30
0.0
 42
-0.39378722
  0
VERTEX
  5
1032
  8
WHITE
 10
528.99204867499986
 20
420.58892430999992
 30
0.0
 42
-0.32728804
  0
VERTEX
  5
1033
  8
WHITE
 10
539.03113702500002
 20
422.50373006000001
 30
0.0
 42
0.31007586
  0
VERTEX
  5
1034
  8
WHITE
 10
561.65039664999995
 20
426.08954870999992
 30
0.0
 42
0.31007586
  0
VERTEX
  5
1035
  8
WHITE
 10
566.44410167000001
 20
448.48395412999992
 30
0.0
 42
-0.25019146
  0
VERTEX
  5
1036
  8
WHITE
 10
566.60637637000002
 20
450.10383664
 30
0.0
 42
-0.25019146
  0
VERTEX
  5
1037
  8
WHITE
 10
568.04256201999999
 20
450.87046724499999
 30
0.0
 42
-0.11561609
  0
VERTEX
  5
1038
  8
WHITE
 10
591.88915861999988
 20
450.87046874499993
 30
0.0
 42
-0.25019141
  0
VERTEX
  5
1039
  8
WHITE
 10
593.32534551000003
 20
450.10383788000001
 30
0.0
 42
-0.25019141
  0
VERTEX
  5
103A
  8
WHITE
 10
593.48762011999986
 20
448.48395435999993
 30
0.0
 42
0.31007586
  0
VERTEX
  5
103B
  8
WHITE
 10
598.28132571000003
 20
426.08954870999992
 30
0.0
 42
0.31007586
  0
VERTEX
  5
103C
  8
WHITE
 10
620.90058534000002
 20
422.50373006000001
 30
0.0
 42
-0.32728804
  0
VERTEX
  5
103D
  8
WHITE
 10
630.93967305499984
 20
420.58892373499998
 30
0.0
 42
-0.39378722
  0
VERTEX
  5
103E
  8
WHITE
 10
630.86958596500006
 20
293.84301971000002
 30
0.0
 42
-0.12098004
  0
VERTEX
  5
103F
  8
WHITE
 10
628.79966871999989
 20
292.48931448000002
 30
0.0
 42
-0.10235087
  0
VERTEX
  5
1040
  8
WHITE
 10
623.409815245
 20
291.76055723000002
 30
0.0
 42
-0.29327265
  0
VERTEX
  5
1041
  8
WHITE
 10
618.91733384500003
 20
295.10641516499999
 30
0.0
 42
-0.29327265
  0
VERTEX
  5
1042
  8
WHITE
 10
620.08745145499995
 20
300.584369095
 30
0.0
 42
0.31463565
  0
VERTEX
  5
1043
  8
WHITE
 10
635.80432165000002
 20
391.41900843000002
 30
0.0
 42
0.1052213
  0
VERTEX
  5
1044
  8
WHITE
 10
632.32973940999989
 20
396.00863355500002
 30
0.0
 42
0.16611435
  0
VERTEX
  5
1045
  8
WHITE
 10
611.92349817000002
 20
404.25166596499992
 30
0.0
  0
VERTEX
  5
1046
  8
WHITE
 10
611.16764626999998
 20
404.28461707999992
 30
0.0
  0
VERTEX
  5
1047
  8
WHITE
 10
610.41134211500002
 20
404.30075871999992
 30
0.0
  0
VERTEX
  5
1048
  8
WHITE
 10
609.65486602999988
 20
404.30008798
 30
0.0
  0
VERTEX
  5
1049
  8
WHITE
 10
608.89849832499999
 20
404.28260195000001
 30
0.0
  0
SEQEND
  5
104A
  8
WHITE
  0
POLYLINE
  5
55E
  8
WHITE
 66
     1
 10
0.0
 20
0.0
 30
0.0
 70
     1
  0
VERTEX
  5
104B
  8
WHITE
 10
607.79743163000001
 20
467.64093362999989
 30
0.0
 42
-0.25008219
  0
VERTEX
  5
104C
  8
WHITE
 10
563.90917991000003
 20
487.63647122499998
 30
0.0
 42
0.23277943
  0
VERTEX
  5
104D
  8
WHITE
 10
552.96571742499987
 20
493.06113578999998
 30
0.0
  0
VERTEX
  5
104E
  8
WHITE
 10
533.16974868
 20
493.11632365999992
 30
0.0
 42
-0.21382743
  0
VERTEX
  5
104F
  8
WHITE
 10
532.91203457999995
 20
493.23268099000001
 30
0.0
 42
-0.21382743
  0
VERTEX
  5
1050
  8
WHITE
 10
532.82737174500005
 20
493.50247307000001
 30
0.0
  0
VERTEX
  5
1051
  8
WHITE
 10
535.75044134500001
 20
518.3218617
 30
0.0
 42
0.41421357
  0
VERTEX
  5
1052
  8
WHITE
 10
535.44753686000001
 20
518.70563913000001
 30
0.0
  0
VERTEX
  5
1053
  8
WHITE
 10
533.12998237500005
 20
518.97858574500003
 30
0.0
 42
0.41421338
  0
VERTEX
  5
1054
  8
WHITE
 10
532.74620460000006
 20
518.67568136499995
 30
0.0
  0
VERTEX
  5
1055
  8
WHITE
 10
529.82609676499999
 20
493.88145732999999
 30
0.0
 42
-0.41579244
  0
VERTEX
  5
1056
  8
WHITE
 10
529.44046976000004
 20
493.57877380500003
 30
0.0
 42
-0.25792271
  0
VERTEX
  5
1057
  8
WHITE
 10
517.78301447000001
 20
502.03320133
 30
0.0
 42
-0.17707943
  0
VERTEX
  5
1058
  8
WHITE
 10
523.52991400999986
 20
535.23667569999986
 30
0.0
 42
0.19589659
  0
VERTEX
  5
1059
  8
WHITE
 10
523.88108065999995
 20
537.82178631999989
 30
0.0
 42
-0.31374658
  0
VERTEX
  5
105A
  8
WHITE
 10
529.93500301999995
 20
554.09460388000002
 30
0.0
 42
-0.31374658
  0
VERTEX
  5
105B
  8
WHITE
 10
547.29743158999997
 20
554.06950534500004
 30
0.0
  0
VERTEX
  5
105C
  8
WHITE
 10
566.69395929999985
 20
541.13848736499995
 30
0.0
 42
0.14806875
  0
VERTEX
  5
105D
  8
WHITE
 10
581.07654351500003
 20
536.78379105500005
 30
0.0
  0
VERTEX
  5
105E
  8
WHITE
 10
606.24171732000002
 20
536.78379105500005
 30
0.0
 42
-0.4142135500000001
  0
VERTEX
  5
105F
  8
WHITE
 10
606.58743159000005
 20
536.43807676999995
 30
0.0
  0
VERTEX
  5
1060
  8
WHITE
 10
606.58743159000005
 20
519.843791055
 30
0.0
 42
0.41421356
  0
VERTEX
  5
1061
  8
WHITE
 10
606.93314587500004
 20
519.49807677000001
 30
0.0
  0
VERTEX
  5
1062
  8
WHITE
 10
609.26671729999987
 20
519.49807677000001
 30
0.0
 42
0.41421356
  0
VERTEX
  5
1063
  8
WHITE
 10
609.61243159000003
 20
519.843791055
 30
0.0
  0
VERTEX
  5
1064
  8
WHITE
 10
609.61243159000003
 20
536.43807676999995
 30
0.0
 42
-0.4142135500000001
  0
VERTEX
  5
1065
  8
WHITE
 10
609.95814587500001
 20
536.78379105500005
 30
0.0
  0
VERTEX
  5
1066
  8
WHITE
 10
634.51831965999986
 20
536.78379105500005
 30
0.0
 42
0.14806874
  0
VERTEX
  5
1067
  8
WHITE
 10
648.90090349499985
 20
541.13848711499998
 30
0.0
  0
VERTEX
  5
1068
  8
WHITE
 10
668.29743108499986
 20
554.06950473999996
 30
0.0
 42
-0.31374659
  0
VERTEX
  5
1069
  8
WHITE
 10
685.65985982999985
 20
554.09460410500003
 30
0.0
 42
-0.31374659
  0
VERTEX
  5
106A
  8
WHITE
 10
691.71378169000002
 20
537.82178652499988
 30
0.0
 42
0.19589659
  0
VERTEX
  5
106B
  8
WHITE
 10
692.06494875999999
 20
535.23667548000003
 30
0.0
 42
-0.17707943
  0
VERTEX
  5
106C
  8
WHITE
 10
697.81184757999995
 20
502.03320174999999
 30
0.0
 42
-0.26904869
  0
VERTEX
  5
106D
  8
WHITE
 10
685.53814366500001
 20
493.51581565999999
 30
0.0
 42
-0.40364236
  0
VERTEX
  5
106E
  8
WHITE
 10
685.16682808999997
 20
493.81995978499992
 30
0.0
  0
VERTEX
  5
106F
  8
WHITE
 10
682.24781198999995
 20
518.604917
 30
0.0
 42
0.41421354
  0
VERTEX
  5
1070
  8
WHITE
 10
681.86403456000005
 20
518.907821485
 30
0.0
  0
VERTEX
  5
1071
  8
WHITE
 10
679.54647965000004
 20
518.63487517999988
 30
0.0
 42
0.41421329
  0
VERTEX
  5
1072
  8
WHITE
 10
679.24357524000004
 20
518.25109733500005
 30
0.0
  0
VERTEX
  5
1073
  8
WHITE
 10
682.1585109099999
 20
493.50077545499988
 30
0.0
 42
-0.21382719
  0
VERTEX
  5
1074
  8
WHITE
 10
682.07384783999998
 20
493.23098369500002
 30
0.0
 42
-0.21382719
  0
VERTEX
  5
1075
  8
WHITE
 10
681.81613411499995
 20
493.11462658499988
 30
0.0
  0
VERTEX
  5
1076
  8
WHITE
 10
662.62914509999996
 20
493.06113594499999
 30
0.0
 42
0.23277942
  0
VERTEX
  5
1077
  8
WHITE
 10
651.68568172499988
 20
487.63647236999998
 30
0.0
 42
-0.24291473
  0
VERTEX
  5
1078
  8
WHITE
 10
609.18028853999988
 20
467.57298772000001
 30
0.0
  0
VERTEX
  5
1079
  8
WHITE
 10
608.83412058500005
 20
467.59458681500001
 30
0.0
  0
VERTEX
  5
107A
  8
WHITE
 10
608.48809831000005
 20
467.62392496000001
 30
0.0
  0
VERTEX
  5
107B
  8
WHITE
 10
608.14245691999997
 20
467.64478096499988
 30
0.0
  0
VERTEX
  5
107C
  8
WHITE
 10
607.96985256000005
 20
467.6469590399999
 30
0.0
  0
VERTEX
  5
107D
  8
WHITE
 10
607.79743163000001
 20
467.64093362999989
 30
0.0
  0
SEQEND
  5
107E
  8
WHITE
  0
POLYLINE
  5
593
  8
WHITE
 66
     1
 10
0.0
 20
0.0
 30
0.0
 70
     1
  0
VERTEX
  5
107F
  8
WHITE
 10
632.43400876999999
 20
194.49138490999999
 30
0.0
 42
0.10344394
  0
VERTEX
  5
1080
  8
WHITE
 10
618.61445119999985
 20
192.70762973000001
 30
0.0
 42
0.12778714
  0
VERTEX
  5
1081
  8
WHITE
 10
614.99941419499987
 20
190.29387794499999
 30
0.0
 42
-0.21353871
  0
VERTEX
  5
1082
  8
WHITE
 10
601.24779898500003
 20
184.11720868
 30
0.0
 42
-0.4146227200000001
  0
VERTEX
  5
1083
  8
WHITE
 10
600.90160183
 20
184.46292263000001
 30
0.0
  0
VERTEX
  5
1084
  8
WHITE
 10
600.90160183
 20
207.97367033
 30
0.0
 42
0.41421354
  0
VERTEX
  5
1085
  8
WHITE
 10
600.55588754500002
 20
208.31938461499999
 30
0.0
  0
VERTEX
  5
1086
  8
WHITE
 10
598.22231611500001
 20
208.31938461499999
 30
0.0
 42
0.41421356
  0
VERTEX
  5
1087
  8
WHITE
 10
597.87660182999991
 20
207.97367033
 30
0.0
  0
VERTEX
  5
1088
  8
WHITE
 10
597.87660182999991
 20
184.47387831500001
 30
0.0
 42
-0.20344047
  0
VERTEX
  5
1089
  8
WHITE
 10
597.77105216500001
 20
184.22520317999999
 30
0.0
 42
-0.20344047
  0
VERTEX
  5
108A
  8
WHITE
 10
597.51885366500005
 20
184.128373135
 30
0.0
 42
-0.2048188
  0
VERTEX
  5
108B
  8
WHITE
 10
584.38378743999999
 20
190.29387828500001
 30
0.0
 42
0.12778711
  0
VERTEX
  5
108C
  8
WHITE
 10
580.76875133500005
 20
192.70763012
 30
0.0
 42
0.26806938
  0
VERTEX
  5
108D
  8
WHITE
 10
547.32772254999986
 20
186.30040840000001
 30
0.0
 42
0.10522126
  0
VERTEX
  5
108E
  8
WHITE
 10
543.85314178500005
 20
181.71078506999999
 30
0.0
 42
0.26803816
  0
VERTEX
  5
108F
  8
WHITE
 10
550.72426425000003
 20
101.48332886999999
 30
0.0
 42
-0.41421356
  0
VERTEX
  5
1090
  8
WHITE
 10
548.71901081999999
 20
92.903214575000007
 30
0.0
 42
-0.41421356
  0
VERTEX
  5
1091
  8
WHITE
 10
540.13889701000005
 20
94.90846827
 30
0.0
 42
-0.35142417
  0
VERTEX
  5
1092
  8
WHITE
 10
548.71778928000003
 20
210.880701665
 30
0.0
 42
-0.32728804
  0
VERTEX
  5
1093
  8
WHITE
 10
558.75687792999986
 20
212.79550589999999
 30
0.0
 42
0.3010212
  0
VERTEX
  5
1094
  8
WHITE
 10
581.97823102999985
 20
216.63411976500001
 30
0.0
 42
0.3010212
  0
VERTEX
  5
1095
  8
WHITE
 10
587.51342833000001
 20
239.51047801000001
 30
0.0
 42
-0.21610866
  0
VERTEX
  5
1096
  8
WHITE
 10
587.60274144000005
 20
240.64903272000001
 30
0.0
 42
-0.21610866
  0
VERTEX
  5
1097
  8
WHITE
 10
588.5179782649999
 20
241.33213230499999
 30
0.0
 42
-0.06237111
  0
VERTEX
  5
1098
  8
WHITE
 10
610.85669242999995
 20
241.33399989
 30
0.0
 42
-0.21677477
  0
VERTEX
  5
1099
  8
WHITE
 10
611.77373856999986
 20
240.64796774999999
 30
0.0
 42
-0.21677477
  0
VERTEX
  5
109A
  8
WHITE
 10
611.85913172499988
 20
239.50589872
 30
0.0
 42
0.30243794
  0
VERTEX
  5
109B
  8
WHITE
 10
617.35119507000002
 20
216.574488325
 30
0.0
 42
0.30243794
  0
VERTEX
  5
109C
  8
WHITE
 10
640.62632443999985
 20
212.79550621000001
 30
0.0
 42
-0.32728806
  0
VERTEX
  5
109D
  8
WHITE
 10
650.66541284000004
 20
210.88070020999999
 30
0.0
 42
-0.35142417
  0
VERTEX
  5
109E
  8
WHITE
 10
659.24430860500001
 20
94.908467095000006
 30
0.0
 42
-0.41421356
  0
VERTEX
  5
109F
  8
WHITE
 10
650.66419193000002
 20
92.903213109999996
 30
0.0
 42
-0.41421356
  0
VERTEX
  5
10A0
  8
WHITE
 10
648.65893794500005
 20
101.483329785
 30
0.0
 42
0.26803816
  0
VERTEX
  5
10A1
  8
WHITE
 10
655.53006143499999
 20
181.710784905
 30
0.0
 42
0.10522126
  0
VERTEX
  5
10A2
  8
WHITE
 10
652.05548102
 20
186.30040844499999
 30
0.0
 42
0.14974965
  0
VERTEX
  5
10A3
  8
WHITE
 10
633.81442337999999
 20
194.355435535
 30
0.0
  0
VERTEX
  5
10A4
  8
WHITE
 10
633.12490869999988
 20
194.43044306499999
 30
0.0
  0
VERTEX
  5
10A5
  8
WHITE
 10
632.43400876999999
 20
194.49138490999999
 30
0.0
  0
SEQEND
  5
10A6
  8
WHITE
  0
POLYLINE
  5
5BC
  8
WHITE
 66
     1
 10
0.0
 20
0.0
 30
0.0
 70
     1
  0
VERTEX
  5
10A7
  8
WHITE
 10
564.70182483999997
 20
354.35938678999997
 30
0.0
 42
0.07017468
  0
VERTEX
  5
10A8
  8
WHITE
 10
560.83517432999997
 20
351.96990528499998
 30
0.0
  0
VERTEX
  5
10A9
  8
WHITE
 10
554.34247841499985
 20
350.87948997500001
 30
0.0
 42
-0.22062718
  0
VERTEX
  5
10AA
  8
WHITE
 10
554.06192253500001
 20
350.95650384999999
 30
0.0
 42
-0.22062718
  0
VERTEX
  5
10AB
  8
WHITE
 10
553.93950532999986
 20
351.22042955500001
 30
0.0
  0
VERTEX
  5
10AC
  8
WHITE
 10
553.93950532999986
 20
361.95425485499999
 30
0.0
 42
0.41421354
  0
VERTEX
  5
10AD
  8
WHITE
 10
553.59379104499999
 20
362.29996914499998
 30
0.0
  0
VERTEX
  5
10AE
  8
WHITE
 10
551.26021961499987
 20
362.29996914499998
 30
0.0
 42
0.41421354
  0
VERTEX
  5
10AF
  8
WHITE
 10
550.91450533
 20
361.95425485499999
 30
0.0
  0
VERTEX
  5
10B0
  8
WHITE
 10
550.91450533
 20
351.52634521499999
 30
0.0
 42
-0.22062743
  0
VERTEX
  5
10B1
  8
WHITE
 10
550.73087917999987
 20
351.13045635499998
 30
0.0
 42
-0.22062743
  0
VERTEX
  5
10B2
  8
WHITE
 10
550.31004464499995
 20
351.01493525500001
 30
0.0
  0
VERTEX
  5
10B3
  8
WHITE
 10
544.62383394000005
 20
351.96990454500002
 30
0.0
 42
0.16487631
  0
VERTEX
  5
10B4
  8
WHITE
 10
534.87094705499999
 20
355.71724290999998
 30
0.0
 42
-0.26802936
  0
VERTEX
  5
10B5
  8
WHITE
 10
534.43251430999987
 20
355.994428965
 30
0.0
 42
-0.31732903
  0
VERTEX
  5
10B6
  8
WHITE
 10
535.63711218000003
 20
365.11725962499997
 30
0.0
 42
0.2555456
  0
VERTEX
  5
10B7
  8
WHITE
 10
544.80004484999995
 20
371.92571215999999
 30
0.0
  0
VERTEX
  5
10B8
  8
WHITE
 10
545.98998445500001
 20
381.66472798000001
 30
0.0
 42
-0.31412556
  0
VERTEX
  5
10B9
  8
WHITE
 10
546.38562034499989
 20
382.106540575
 30
0.0
 42
-0.11639891
  0
VERTEX
  5
10BA
  8
WHITE
 10
559.07339080999986
 20
382.10654267500001
 30
0.0
 42
-0.31412478
  0
VERTEX
  5
10BB
  8
WHITE
 10
559.46902555999986
 20
381.6647279
 30
0.0
  0
VERTEX
  5
10BC
  8
WHITE
 10
560.65896581000004
 20
371.92571215999999
 30
0.0
 42
0.25554558
  0
VERTEX
  5
10BD
  8
WHITE
 10
569.821897455
 20
365.11725934999998
 30
0.0
 42
-0.317329
  0
VERTEX
  5
10BE
  8
WHITE
 10
571.02649651000002
 20
355.99442797
 30
0.0
 42
-0.26802984
  0
VERTEX
  5
10BF
  8
WHITE
 10
570.58806187499999
 20
355.71724283999998
 30
0.0
 42
0.07221572
  0
VERTEX
  5
10C0
  8
WHITE
 10
565.99092947500003
 20
354.86071581499999
 30
0.0
  0
VERTEX
  5
10C1
  8
WHITE
 10
565.34104829
 20
354.62375383
 30
0.0
  0
VERTEX
  5
10C2
  8
WHITE
 10
564.70182483999997
 20
354.35938678999997
 30
0.0
  0
SEQEND
  5
10C3
  8
WHITE
  0
POLYLINE
  5
5DA
  8
WHITE
 66
     1
 10
0.0
 20
0.0
 30
0.0
 70
     1
  0
VERTEX
  5
10C4
  8
WHITE
 10
628.656918335
 20
595.53115548499989
 30
0.0
 42
0.10185943
  0
VERTEX
  5
10C5
  8
WHITE
 10
608.59949163500005
 20
591.54485316499995
 30
0.0
 42
-0.25513957
  0
VERTEX
  5
10C6
  8
WHITE
 10
600.46146682000006
 20
583.96567614499986
 30
0.0
 42
-0.25513957
  0
VERTEX
  5
10C7
  8
WHITE
 10
589.68472644999986
 20
586.71035208499995
 30
0.0
 42
-0.07964345
  0
VERTEX
  5
10C8
  8
WHITE
 10
579.06292932500003
 20
578.10194385
 30
0.0
 42
-0.31302743
  0
VERTEX
  5
10C9
  8
WHITE
 10
570.84288369000001
 20
565.53978633999998
 30
0.0
 42
-0.07010367
  0
VERTEX
  5
10CA
  8
WHITE
 10
569.90691980999998
 20
565.30611219000002
 30
0.0
 42
-0.22940094
  0
VERTEX
  5
10CB
  8
WHITE
 10
544.35447549499986
 20
574.52696175499989
 30
0.0
 42
-0.22940094
  0
VERTEX
  5
10CC
  8
WHITE
 10
535.7452055
 20
600.29189772999985
 30
0.0
  0
VERTEX
  5
10CD
  8
WHITE
 10
556.14234836000003
 20
600.29189772999985
 30
0.0
 42
0.41421335
  0
VERTEX
  5
10CE
  8
WHITE
 10
556.4880626449999
 20
600.63761178000004
 30
0.0
  0
VERTEX
  5
10CF
  8
WHITE
 10
556.4880626449999
 20
602.97118344499995
 30
0.0
 42
0.41421356
  0
VERTEX
  5
10D0
  8
WHITE
 10
556.14234836000003
 20
603.31689773000005
 30
0.0
  0
VERTEX
  5
10D1
  8
WHITE
 10
536.15453467500004
 20
603.31689773000005
 30
0.0
 42
-0.35212876
  0
VERTEX
  5
10D2
  8
WHITE
 10
535.81689220500004
 20
603.58834270999989
 30
0.0
 42
-0.25991919
  0
VERTEX
  5
10D3
  8
WHITE
 10
545.73729977999994
 20
636.58303088499986
 30
0.0
 42
0.24509471
  0
VERTEX
  5
10D4
  8
WHITE
 10
554.33137420499986
 20
647.05664540999999
 30
0.0
 42
-0.35952994
  0
VERTEX
  5
10D5
  8
WHITE
 10
578.99263295499998
 20
660.89678132500001
 30
0.0
 42
0.19380234
  0
VERTEX
  5
10D6
  8
WHITE
 10
576.00338997499989
 20
624.42615423500001
 30
0.0
 42
0.28963852
  0
VERTEX
  5
10D7
  8
WHITE
 10
578.99694064000005
 20
621.19222355500006
 30
0.0
 42
-0.2079178
  0
VERTEX
  5
10D8
  8
WHITE
 10
585.71728154000004
 20
622.58890168999994
 30
0.0
 42
-0.2079178
  0
VERTEX
  5
10D9
  8
WHITE
 10
591.32326091499988
 20
618.62826003500004
 30
0.0
 42
-0.24530176
  0
VERTEX
  5
10DA
  8
WHITE
 10
613.20683123499998
 20
617.97640879999994
 30
0.0
 42
0.21234808
  0
VERTEX
  5
10DB
  8
WHITE
 10
639.74735559999999
 20
620.51779911999995
 30
0.0
 42
0.20922341
  0
VERTEX
  5
10DC
  8
WHITE
 10
678.22822860999997
 20
617.24733874499998
 30
0.0
 42
-0.2103825
  0
VERTEX
  5
10DD
  8
WHITE
 10
686.16219908999994
 20
614.15891033000003
 30
0.0
 42
-0.2103825
  0
VERTEX
  5
10DE
  8
WHITE
 10
689.24208782999995
 20
606.22162093500003
 30
0.0
 42
0.20429887
  0
VERTEX
  5
10DF
  8
WHITE
 10
756.55362990000003
 20
596.27938444999995
 30
0.0
 42
-0.16795392
  0
VERTEX
  5
10E0
  8
WHITE
 10
766.92385001000002
 20
603.85220086000004
 30
0.0
 42
-0.22768658
  0
VERTEX
  5
10E1
  8
WHITE
 10
776.12980616000004
 20
618.08258546499997
 30
0.0
 42
-0.21212155
  0
VERTEX
  5
10E2
  8
WHITE
 10
778.43129612999985
 20
621.47077213999989
 30
0.0
 42
-0.30147343
  0
VERTEX
  5
10E3
  8
WHITE
 10
784.97499257499999
 20
636.17103368999994
 30
0.0
 42
0.21942244
  0
VERTEX
  5
10E4
  8
WHITE
 10
786.18896553000002
 20
630.09463694500005
 30
0.0
  0
VERTEX
  5
10E5
  8
WHITE
 10
786.18896578999988
 20
598.90246855500004
 30
0.0
 42
0.22978939
  0
VERTEX
  5
10E6
  8
WHITE
 10
786.18896455499987
 20
586.54713100000004
 30
0.0
 42
-0.33149935
  0
VERTEX
  5
10E7
  8
WHITE
 10
774.46505680999985
 20
577.35732635500005
 30
0.0
 42
-0.2295529
  0
VERTEX
  5
10E8
  8
WHITE
 10
760.33329051999999
 20
571.60262124500002
 30
0.0
 42
-0.243967
  0
VERTEX
  5
10E9
  8
WHITE
 10
757.83035592500005
 20
565.58710085999996
 30
0.0
 42
-0.243967
  0
VERTEX
  5
10EA
  8
WHITE
 10
751.47099559000003
 20
564.16946082499987
 30
0.0
  0
VERTEX
  5
10EB
  8
WHITE
 10
708.40506822999998
 20
575.02697499999999
 30
0.0
 42
0.27281828
  0
VERTEX
  5
10EC
  8
WHITE
 10
687.07564900499995
 20
574.22122445499997
 30
0.0
 42
-0.32026933
  0
VERTEX
  5
10ED
  8
WHITE
 10
673.79506872000002
 20
583.89022640999985
 30
0.0
 42
-0.30919934
  0
VERTEX
  5
10EE
  8
WHITE
 10
656.89251247499988
 20
586.71035169000004
 30
0.0
 42
0.14210874
  0
VERTEX
  5
10EF
  8
WHITE
 10
630.03961995500003
 20
595.502853695
 30
0.0
  0
VERTEX
  5
10F0
  8
WHITE
 10
629.34836563500005
 20
595.52171837000003
 30
0.0
  0
VERTEX
  5
10F1
  8
WHITE
 10
628.656918335
 20
595.53115548499989
 30
0.0
  0
SEQEND
  5
10F2
  8
WHITE
  0
POLYLINE
  5
60A
  8
WHITE
 66
     1
 10
0.0
 20
0.0
 30
0.0
 70
     1
  0
VERTEX
  5
10F3
  8
WHITE
 10
635.49912625000002
 20
23.990419214999999
 30
0.0
 42
0.0792789
  0
VERTEX
  5
10F4
  8
WHITE
 10
631.08864122499995
 20
21.374012414999999
 30
0.0
  0
VERTEX
  5
10F5
  8
WHITE
 10
624.59594456000002
 20
20.283597270000001
 30
0.0
 42
-0.22062724
  0
VERTEX
  5
10F6
  8
WHITE
 10
624.31538859499994
 20
20.360611495000001
 30
0.0
 42
-0.22062724
  0
VERTEX
  5
10F7
  8
WHITE
 10
624.19297134500005
 20
20.624537244999999
 30
0.0
  0
VERTEX
  5
10F8
  8
WHITE
 10
624.19297134500005
 20
31.358362544999999
 30
0.0
 42
0.41421356
  0
VERTEX
  5
10F9
  8
WHITE
 10
623.84725705999995
 20
31.704076830000002
 30
0.0
  0
VERTEX
  5
10FA
  8
WHITE
 10
621.51368563000005
 20
31.704076830000002
 30
0.0
 42
0.4142135500000001
  0
VERTEX
  5
10FB
  8
WHITE
 10
621.16797134499996
 20
31.358362544999999
 30
0.0
  0
VERTEX
  5
10FC
  8
WHITE
 10
621.16797134499996
 20
20.726144399999999
 30
0.0
 42
-0.22062725
  0
VERTEX
  5
10FD
  8
WHITE
 10
621.04555408500005
 20
20.462218645
 30
0.0
 42
-0.22062725
  0
VERTEX
  5
10FE
  8
WHITE
 10
620.76499812999998
 20
20.385204430000002
 30
0.0
  0
VERTEX
  5
10FF
  8
WHITE
 10
614.87730061499985
 20
21.374011244999998
 30
0.0
 42
0.16487633
  0
VERTEX
  5
1100
  8
WHITE
 10
605.12441306999995
 20
25.121350594999999
 30
0.0
 42
-0.26802936
  0
VERTEX
  5
1101
  8
WHITE
 10
604.68597979499987
 20
25.398536369999999
 30
0.0
 42
-0.31732903
  0
VERTEX
  5
1102
  8
WHITE
 10
605.89057819499999
 20
34.521367310000002
 30
0.0
 42
0.25554561
  0
VERTEX
  5
1103
  8
WHITE
 10
615.05351112499989
 20
41.329820410000004
 30
0.0
  0
VERTEX
  5
1104
  8
WHITE
 10
616.24345046999997
 20
51.068835665000002
 30
0.0
 42
-0.31412556
  0
VERTEX
  5
1105
  8
WHITE
 10
616.63908635999996
 20
51.510648260000004
 30
0.0
 42
-0.11639891
  0
VERTEX
  5
1106
  8
WHITE
 10
629.32685633000006
 20
51.510648260000004
 30
0.0
 42
-0.31412478
  0
VERTEX
  5
1107
  8
WHITE
 10
629.722490515
 20
51.068835460000003
 30
0.0
  0
VERTEX
  5
1108
  8
WHITE
 10
630.91243150000003
 20
41.329820429999998
 30
0.0
 42
0.25554557
  0
VERTEX
  5
1109
  8
WHITE
 10
640.07536285000003
 20
34.52136754
 30
0.0
 42
-0.31732903
  0
VERTEX
  5
110A
  8
WHITE
 10
641.27996064000001
 20
25.39853665
 30
0.0
 42
-0.26802984
  0
VERTEX
  5
110B
  8
WHITE
 10
640.84152787000005
 20
25.121351035
 30
0.0
 42
0.06298794
  0
VERTEX
  5
110C
  8
WHITE
 10
636.81377374500005
 20
24.447220635000001
 30
0.0
  0
VERTEX
  5
110D
  8
WHITE
 10
636.15156423500002
 20
24.232880864999998
 30
0.0
  0
VERTEX
  5
110E
  8
WHITE
 10
635.49912625000002
 20
23.990419214999999
 30
0.0
  0
SEQEND
  5
110F
  8
WHITE
  0
POLYLINE
  5
628
  8
WHITE
 66
     1
 10
0.0
 20
0.0
 30
0.0
 70
     1
  0
VERTEX
  5
1110
  8
WHITE
 10
666.49192063999999
 20
32.815224540000003
 30
0.0
 42
-0.09875467
  0
VERTEX
  5
1111
  8
WHITE
 10
661.18746011999997
 20
36.850365695000001
 30
0.0
 42
0.29483253
  0
VERTEX
  5
1112
  8
WHITE
 10
652.36470784499988
 20
42.820287460000003
 30
0.0
 42
-0.23057497
  0
VERTEX
  5
1113
  8
WHITE
 10
651.01830182000003
 20
43.51218626499999
 30
0.0
 42
-0.23057497
  0
VERTEX
  5
1114
  8
WHITE
 10
650.73293676000003
 20
44.998825644999997
 30
0.0
  0
VERTEX
  5
1115
  8
WHITE
 10
652.45207606500003
 20
51.369278375
 30
0.0
 42
-0.23753883
  0
VERTEX
  5
1116
  8
WHITE
 10
654.52566101499997
 20
53.686274744999999
 30
0.0
  0
VERTEX
  5
1117
  8
WHITE
 10
662.88258671000006
 20
56.969486615000001
 30
0.0
 42
0.30836372
  0
VERTEX
  5
1118
  8
WHITE
 10
666.72031067499995
 20
62.600502044999999
 30
0.0
  0
VERTEX
  5
1119
  8
WHITE
 10
666.72031067499995
 20
69.177351599999994
 30
0.0
 42
-0.33051226
  0
VERTEX
  5
111A
  8
WHITE
 10
667.94804038999985
 20
70.831774315000004
 30
0.0
 42
-0.14812868
  0
VERTEX
  5
111B
  8
WHITE
 10
682.78614100499988
 20
70.82939829
 30
0.0
 42
-0.32879588
  0
VERTEX
  5
111C
  8
WHITE
 10
684.01331088999984
 20
69.185285745000002
 30
0.0
  0
VERTEX
  5
111D
  8
WHITE
 10
684.05229536000002
 20
62.546836814999999
 30
0.0
 42
0.30675672
  0
VERTEX
  5
111E
  8
WHITE
 10
687.88991600500003
 20
56.951350290000001
 30
0.0
  0
VERTEX
  5
111F
  8
WHITE
 10
696.20067425499985
 20
53.686274320000003
 30
0.0
 42
-0.2375388
  0
VERTEX
  5
1120
  8
WHITE
 10
698.27426026000001
 20
51.369278585000004
 30
0.0
  0
VERTEX
  5
1121
  8
WHITE
 10
699.99340181000002
 20
44.998826424999997
 30
0.0
 42
-0.23057497
  0
VERTEX
  5
1122
  8
WHITE
 10
699.70803657500005
 20
43.512184195000003
 30
0.0
 42
-0.23057497
  0
VERTEX
  5
1123
  8
WHITE
 10
698.36162779999995
 20
42.82028691499999
 30
0.0
 42
0.29483253
  0
VERTEX
  5
1124
  8
WHITE
 10
689.53887368000005
 20
36.850366809999997
 30
0.0
 42
-0.21270905
  0
VERTEX
  5
1125
  8
WHITE
 10
676.92194092499994
 20
31.094203690000001
 30
0.0
 42
-0.4168074500000001
  0
VERTEX
  5
1126
  8
WHITE
 10
676.57316781500003
 20
31.439904445
 30
0.0
  0
VERTEX
  5
1127
  8
WHITE
 10
676.57316781500003
 20
45.543458745000002
 30
0.0
 42
0.4142135500000001
  0
VERTEX
  5
1128
  8
WHITE
 10
676.22745353000005
 20
45.889173030000002
 30
0.0
  0
VERTEX
  5
1129
  8
WHITE
 10
673.89388208000003
 20
45.889173030000002
 30
0.0
 42
0.41421354
  0
VERTEX
  5
112A
  8
WHITE
 10
673.54816781500006
 20
45.543458745000002
 30
0.0
  0
VERTEX
  5
112B
  8
WHITE
 10
673.54816608999988
 20
31.456229069999999
 30
0.0
 42
-0.20478082
  0
VERTEX
  5
112C
  8
WHITE
 10
673.44133385999987
 20
31.206322364999998
 30
0.0
 42
-0.20478082
  0
VERTEX
  5
112D
  8
WHITE
 10
673.18686383999989
 20
31.110868095000001
 30
0.0
 42
-0.08195606
  0
VERTEX
  5
112E
  8
WHITE
 10
667.75942247499995
 20
32.260067460000002
 30
0.0
  0
VERTEX
  5
112F
  8
WHITE
 10
667.12003285499998
 20
32.524772110000001
 30
0.0
  0
VERTEX
  5
1130
  8
WHITE
 10
666.49192063999999
 20
32.815224540000003
 30
0.0
  0
SEQEND
  5
1131
  8
WHITE
  0
POLYLINE
  5
64B
  8
WHITE
 66
     1
 10
0.0
 20
0.0
 30
0.0
 70
     1
  0
VERTEX
  5
1132
  8
WHITE
 10
692.48443950499995
 20
290.08067373
 30
0.0
 42
0.28713268
  0
VERTEX
  5
1133
  8
WHITE
 10
668.38287992999994
 20
274.64735406
 30
0.0
 42
-0.24532039
  0
VERTEX
  5
1134
  8
WHITE
 10
668.12768893500004
 20
274.45430430499999
 30
0.0
 42
-0.24532039
  0
VERTEX
  5
1135
  8
WHITE
 10
667.82341176499995
 20
274.55333065000002
 30
0.0
 42
-0.21472623
  0
VERTEX
  5
1136
  8
WHITE
 10
665.90930990000004
 20
279.76479224500002
 30
0.0
  0
VERTEX
  5
1137
  8
WHITE
 10
668.09807890000002
 20
299.8761452
 30
0.0
 42
-0.21694583
  0
VERTEX
  5
1138
  8
WHITE
 10
668.82931107000002
 20
301.10807095500002
 30
0.0
 42
-0.2761749
  0
VERTEX
  5
1139
  8
WHITE
 10
707.31345919499995
 20
303.76510485
 30
0.0
 42
0.23920166
  0
VERTEX
  5
113A
  8
WHITE
 10
713.28176916999985
 20
305.64572329999999
 30
0.0
 42
0.23920166
  0
VERTEX
  5
113B
  8
WHITE
 10
715.28807875500002
 20
311.57296281499998
 30
0.0
  0
VERTEX
  5
113C
  8
WHITE
 10
713.35272354000006
 20
324.99588693499999
 30
0.0
 42
-0.21758846
  0
VERTEX
  5
113D
  8
WHITE
 10
713.67615452500002
 20
326.09860148500002
 30
0.0
 42
-0.21758846
  0
VERTEX
  5
113E
  8
WHITE
 10
714.72142726000004
 20
326.57608644499999
 30
0.0
  0
VERTEX
  5
113F
  8
WHITE
 10
732.27120330000002
 20
326.57608644499999
 30
0.0
 42
-0.21758829
  0
VERTEX
  5
1140
  8
WHITE
 10
733.31647487500004
 20
326.09860082500001
 30
0.0
 42
-0.21758829
  0
VERTEX
  5
1141
  8
WHITE
 10
733.63990517499985
 20
324.995886945
 30
0.0
  0
VERTEX
  5
1142
  8
WHITE
 10
731.70455165999999
 20
311.57296282999999
 30
0.0
 42
0.23920166
  0
VERTEX
  5
1143
  8
WHITE
 10
733.71086139500005
 20
305.64572329999999
 30
0.0
 42
0.23920166
  0
VERTEX
  5
1144
  8
WHITE
 10
739.67917136999995
 20
303.76510485
 30
0.0
 42
-0.2761749
  0
VERTEX
  5
1145
  8
WHITE
 10
778.163319215
 20
301.108070575
 30
0.0
 42
-0.21694583
  0
VERTEX
  5
1146
  8
WHITE
 10
778.89455131499994
 20
299.87614516999997
 30
0.0
  0
VERTEX
  5
1147
  8
WHITE
 10
781.08332055499989
 20
279.76479220499999
 30
0.0
 42
-0.21472623
  0
VERTEX
  5
1148
  8
WHITE
 10
779.16921859000001
 20
274.55333124999999
 30
0.0
 42
-0.2453205
  0
VERTEX
  5
1149
  8
WHITE
 10
778.86494176999997
 20
274.45430428499998
 30
0.0
 42
-0.2453205
  0
VERTEX
  5
114A
  8
WHITE
 10
778.60975014500002
 20
274.64735383499999
 30
0.0
 42
0.21742095
  0
VERTEX
  5
114B
  8
WHITE
 10
761.486815955
 20
289.08740814999999
 30
0.0
 42
0.21742095
  0
VERTEX
  5
114C
  8
WHITE
 10
739.35907552000003
 20
285.61276320500002
 30
0.0
 42
0.12008202
  0
VERTEX
  5
114D
  8
WHITE
 10
737.13261666000005
 20
283.21246918499997
 30
0.0
 42
-0.2835461
  0
VERTEX
  5
114E
  8
WHITE
 10
725.03709715499986
 20
276.45651476
 30
0.0
 42
-0.40161526
  0
VERTEX
  5
114F
  8
WHITE
 10
724.70631441499995
 20
276.80190672999998
 30
0.0
  0
VERTEX
  5
1150
  8
WHITE
 10
724.70631441499995
 20
293.38751501500002
 30
0.0
 42
0.4142131700000001
  0
VERTEX
  5
1151
  8
WHITE
 10
724.36060036499998
 20
293.7332293
 30
0.0
  0
VERTEX
  5
1152
  8
WHITE
 10
722.02702869999985
 20
293.7332293
 30
0.0
 42
0.4142135500000001
  0
VERTEX
  5
1153
  8
WHITE
 10
721.68131441499986
 20
293.38751501500002
 30
0.0
  0
VERTEX
  5
1154
  8
WHITE
 10
721.68131441499986
 20
276.79001069999998
 30
0.0
 42
-0.4153509200000001
  0
VERTEX
  5
1155
  8
WHITE
 10
721.33425820000002
 20
276.44429902000002
 30
0.0
 42
-0.27086909
  0
VERTEX
  5
1156
  8
WHITE
 10
709.8600123949999
 20
283.21246834499999
 30
0.0
 42
0.12008202
  0
VERTEX
  5
1157
  8
WHITE
 10
707.63355424999986
 20
285.61276192000003
 30
0.0
 42
0.13658737
  0
VERTEX
  5
1158
  8
WHITE
 10
693.86729677999995
 20
290.05951003000001
 30
0.0
  0
VERTEX
  5
1159
  8
WHITE
 10
693.17600381
 20
290.078956565
 30
0.0
  0
VERTEX
  5
115A
  8
WHITE
 10
692.48443950499995
 20
290.08067373
 30
0.0
  0
SEQEND
  5
115B
  8
WHITE
  0
POLYLINE
  5
676
  8
WHITE
 66
     1
 10
0.0
 20
0.0
 30
0.0
 70
     1
  0
VERTEX
  5
115C
  8
WHITE
 10
723.08514030499987
 20
422.58855206499999
 30
0.0
 42
0.08679162
  0
VERTEX
  5
115D
  8
WHITE
 10
712.27224840999986
 20
412.57263869000002
 30
0.0
 42
0.22068385
  0
VERTEX
  5
115E
  8
WHITE
 10
680.75185072500005
 20
395.14383013499997
 30
0.0
 42
0.1728561
  0
VERTEX
  5
115F
  8
WHITE
 10
680.58650159000001
 20
394.58763664999998
 30
0.0
 42
-0.29630701
  0
VERTEX
  5
1160
  8
WHITE
 10
678.64327479999997
 20
391.21539603500003
 30
0.0
 42
-0.29630701
  0
VERTEX
  5
1161
  8
WHITE
 10
674.77233746000002
 20
391.62033970499999
 30
0.0
 42
-0.35607512
  0
VERTEX
  5
1162
  8
WHITE
 10
674.54857507500003
 20
392.68966537
 30
0.0
  0
VERTEX
  5
1163
  8
WHITE
 10
676.52255775499987
 20
396.50109929000001
 30
0.0
 42
-0.12703865
  0
VERTEX
  5
1164
  8
WHITE
 10
676.81098121499986
 20
396.82300290000001
 30
0.0
  0
VERTEX
  5
1165
  8
WHITE
 10
680.3053607999999
 20
399.14992476499998
 30
0.0
 42
0.15458938
  0
VERTEX
  5
1166
  8
WHITE
 10
680.63217504500005
 20
399.55691146999999
 30
0.0
  0
VERTEX
  5
1167
  8
WHITE
 10
682.53840042499996
 20
404.47420519999997
 30
0.0
 42
-0.20498146
  0
VERTEX
  5
1168
  8
WHITE
 10
683.01386299000001
 20
404.96045341500002
 30
0.0
  0
VERTEX
  5
1169
  8
WHITE
 10
687.01883510499999
 20
406.617273485
 30
0.0
 42
0.18422607
  0
VERTEX
  5
116A
  8
WHITE
 10
687.64592775000006
 20
407.20927307499989
 30
0.0
  0
VERTEX
  5
116B
  8
WHITE
 10
689.66765195499988
 20
411.39658438499993
 30
0.0
 42
-0.22532665
  0
VERTEX
  5
116C
  8
WHITE
 10
690.47615943000005
 20
412.04736982999992
 30
0.0
  0
VERTEX
  5
116D
  8
WHITE
 10
693.34107635500004
 20
412.73173543500002
 30
0.0
 42
0.21226327
  0
VERTEX
  5
116E
  8
WHITE
 10
694.12200524499985
 20
413.32886181499993
 30
0.0
  0
VERTEX
  5
116F
  8
WHITE
 10
696.67446859999995
 20
418.00470659000001
 30
0.0
 42
-0.21226362
  0
VERTEX
  5
1170
  8
WHITE
 10
697.45539967499997
 20
418.60183265500001
 30
0.0
  0
VERTEX
  5
1171
  8
WHITE
 10
702.16239647500004
 20
419.72623206999998
 30
0.0
 42
0.16848395
  0
VERTEX
  5
1172
  8
WHITE
 10
702.83070352499999
 20
420.1530106699999
 30
0.0
  0
VERTEX
  5
1173
  8
WHITE
 10
707.33000051500005
 20
425.84793494499991
 30
0.0
  0
VERTEX
  5
1174
  8
WHITE
 10
716.96536189000005
 20
432.917686645
 30
0.0
 42
0.1596805
  0
VERTEX
  5
1175
  8
WHITE
 10
717.77977180499988
 20
442.74991658499999
 30
0.0
 42
0.34258479
  0
VERTEX
  5
1176
  8
WHITE
 10
717.44919961999994
 20
443.01540743499987
 30
0.0
 42
0.34258479
  0
VERTEX
  5
1177
  8
WHITE
 10
717.110029295
 20
442.76099271499987
 30
0.0
 42
-0.16329656
  0
VERTEX
  5
1178
  8
WHITE
 10
713.07070666499999
 20
436.73928087000002
 30
0.0
 42
0.10514218
  0
VERTEX
  5
1179
  8
WHITE
 10
712.74450623999985
 20
436.35596763500001
 30
0.0
  0
VERTEX
  5
117A
  8
WHITE
 10
710.90109501500001
 20
432.94572977500002
 30
0.0
 42
-0.14920782
  0
VERTEX
  5
117B
  8
WHITE
 10
710.3983841999999
 20
432.44940627
 30
0.0
  0
VERTEX
  5
117C
  8
WHITE
 10
704.26384691999988
 20
429.2340382349999
 30
0.0
 42
0.18060241
  0
VERTEX
  5
117D
  8
WHITE
 10
703.69891497499998
 20
428.60362351499998
 30
0.0
  0
VERTEX
  5
117E
  8
WHITE
 10
701.90624750999996
 20
424.02681430500002
 30
0.0
 42
-0.22008342
  0
VERTEX
  5
117F
  8
WHITE
 10
701.17277895999996
 20
423.32377468499988
 30
0.0
  0
VERTEX
  5
1180
  8
WHITE
 10
695.94841036000003
 20
421.52870511499992
 30
0.0
 42
0.20011595
  0
VERTEX
  5
1181
  8
WHITE
 10
695.25195683000004
 20
420.91047289999989
 30
0.0
  0
VERTEX
  5
1182
  8
WHITE
 10
693.44709716499995
 20
417.17231938999998
 30
0.0
 42
-0.20994153
  0
VERTEX
  5
1183
  8
WHITE
 10
692.707214475
 20
416.54007389999992
 30
0.0
  0
VERTEX
  5
1184
  8
WHITE
 10
690.21465422999995
 20
415.78745908500002
 30
0.0
 42
0.18635102
  0
VERTEX
  5
1185
  8
WHITE
 10
689.52696053
 20
415.25184428999989
 30
0.0
  0
VERTEX
  5
1186
  8
WHITE
 10
686.24470474999987
 20
409.78371736999992
 30
0.0
 42
-0.16492362
  0
VERTEX
  5
1187
  8
WHITE
 10
685.65199832999997
 20
409.28114906999991
 30
0.0
  0
VERTEX
  5
1188
  8
WHITE
 10
680.16670879000003
 20
407.11323874499988
 30
0.0
 42
0.23144256
  0
VERTEX
  5
1189
  8
WHITE
 10
679.65487999499999
 20
406.55217312500002
 30
0.0
  0
VERTEX
  5
118A
  8
WHITE
 10
678.81567810000001
 20
403.68417134499998
 30
0.0
  0
VERTEX
  5
118B
  8
WHITE
 10
676.21140361000005
 20
399.17650519
 30
0.0
 42
-0.18474041
  0
VERTEX
  5
118C
  8
WHITE
 10
675.73177702999999
 20
398.78742579999999
 30
0.0
  0
VERTEX
  5
118D
  8
WHITE
 10
673.84313469999995
 20
398.16954621500003
 30
0.0
 42
0.24171967
  0
VERTEX
  5
118E
  8
WHITE
 10
673.28772081499994
 20
397.60841327999998
 30
0.0
  0
VERTEX
  5
118F
  8
WHITE
 10
672.49261303000003
 20
395.09106631499998
 30
0.0
 42
-0.41421356
  0
VERTEX
  5
1190
  8
WHITE
 10
671.35354451499995
 20
394.09297588999999
 30
0.0
 42
-0.41421356
  0
VERTEX
  5
1191
  8
WHITE
 10
670.35545486000001
 20
395.23204426000001
 30
0.0
 42
-0.1416123
  0
VERTEX
  5
1192
  8
WHITE
 10
670.549141975
 20
423.64825683499993
 30
0.0
 42
-0.18192207
  0
VERTEX
  5
1193
  8
WHITE
 10
671.28413147499998
 20
424.61895466499999
 30
0.0
 42
0.26073411
  0
VERTEX
  5
1194
  8
WHITE
 10
684.28836180500002
 20
448.54374126499988
 30
0.0
 42
-0.25791938
  0
VERTEX
  5
1195
  8
WHITE
 10
685.07912690499995
 20
450.01703635000001
 30
0.0
 42
0.13713546
  0
VERTEX
  5
1196
  8
WHITE
 10
706.26857560500002
 20
473.94065510000001
 30
0.0
 42
-0.38905005
  0
VERTEX
  5
1197
  8
WHITE
 10
710.61412839499985
 20
475.65840795000003
 30
0.0
 42
0.22914813
  0
VERTEX
  5
1198
  8
WHITE
 10
727.3919436949999
 20
477.08620019
 30
0.0
 42
-0.32375006
  0
VERTEX
  5
1199
  8
WHITE
 10
731.427520555
 20
476.71880564999998
 30
0.0
 42
-0.10786313
  0
VERTEX
  5
119A
  8
WHITE
 10
741.31138486999998
 20
463.41351050499992
 30
0.0
 42
-0.33602359
  0
VERTEX
  5
119B
  8
WHITE
 10
741.21850508999989
 20
463.00644376999992
 30
0.0
  0
VERTEX
  5
119C
  8
WHITE
 10
724.4691551599999
 20
448.95207052500001
 30
0.0
 42
0.41421348
  0
VERTEX
  5
119D
  8
WHITE
 10
724.42654359999995
 20
448.46501721999999
 30
0.0
  0
VERTEX
  5
119E
  8
WHITE
 10
725.92653545999997
 20
446.67739697000002
 30
0.0
 42
0.41421309
  0
VERTEX
  5
119F
  8
WHITE
 10
726.41358811500004
 20
446.63478595499993
 30
0.0
  0
VERTEX
  5
11A0
  8
WHITE
 10
740.02770003000001
 20
458.05838198499998
 30
0.0
 42
-0.41421319
  0
VERTEX
  5
11A1
  8
WHITE
 10
740.51475353000001
 20
458.01577111500001
 30
0.0
  0
VERTEX
  5
11A2
  8
WHITE
 10
743.95701994000001
 20
453.913435225
 30
0.0
 42
-0.13908564
  0
VERTEX
  5
11A3
  8
WHITE
 10
744.34320507999985
 20
453.05267112500002
 30
0.0
 42
-0.15539101
  0
VERTEX
  5
11A4
  8
WHITE
 10
740.51608740499989
 20
429.77887671500002
 30
0.0
 42
-0.23781323
  0
VERTEX
  5
11A5
  8
WHITE
 10
739.26089758499995
 20
428.85879573999989
 30
0.0
 42
0.09427284
  0
VERTEX
  5
11A6
  8
WHITE
 10
724.26201458499997
 20
423.32277344999989
 30
0.0
  0
VERTEX
  5
11A7
  8
WHITE
 10
723.67060103999995
 20
422.96043359999987
 30
0.0
  0
VERTEX
  5
11A8
  8
WHITE
 10
723.08514030499987
 20
422.58855206499999
 30
0.0
  0
SEQEND
  5
11A9
  8
WHITE
  0
POLYLINE
  5
6C5
  8
WHITE
 66
     1
 10
0.0
 20
0.0
 30
0.0
 70
     1
  0
VERTEX
  5
11AA
  8
WHITE
 10
770.45217544499985
 20
347.839204655
 30
0.0
 42
0.08242311
  0
VERTEX
  5
11AB
  8
WHITE
 10
759.46720926499995
 20
345.953049765
 30
0.0
 42
0.12778712
  0
VERTEX
  5
11AC
  8
WHITE
 10
755.85217187499995
 20
343.53929735000003
 30
0.0
 42
-0.2048188
  0
VERTEX
  5
11AD
  8
WHITE
 10
742.71710693499995
 20
337.37379105000002
 30
0.0
 42
-0.20344046
  0
VERTEX
  5
11AE
  8
WHITE
 10
742.46490844499999
 20
337.47062109000001
 30
0.0
 42
-0.20344046
  0
VERTEX
  5
11AF
  8
WHITE
 10
742.35935877500003
 20
337.71929620999998
 30
0.0
  0
VERTEX
  5
11B0
  8
WHITE
 10
742.35935877500003
 20
360.00908996999999
 30
0.0
 42
0.41421356
  0
VERTEX
  5
11B1
  8
WHITE
 10
742.01364449000005
 20
360.35480425499998
 30
0.0
  0
VERTEX
  5
11B2
  8
WHITE
 10
739.68007306000004
 20
360.35480425499998
 30
0.0
 42
0.4142133700000001
  0
VERTEX
  5
11B3
  8
WHITE
 10
739.33435877500006
 20
360.009090195
 30
0.0
  0
VERTEX
  5
11B4
  8
WHITE
 10
739.33435877500006
 20
337.707949885
 30
0.0
 42
-0.41464658
  0
VERTEX
  5
11B5
  8
WHITE
 10
738.98813346500003
 20
337.36223597999998
 30
0.0
 42
-0.21345035
  0
VERTEX
  5
11B6
  8
WHITE
 10
725.24117185
 20
343.53536853499998
 30
0.0
 42
0.12778713
  0
VERTEX
  5
11B7
  8
WHITE
 10
721.62551611499998
 20
345.948193135
 30
0.0
 42
0.26806938
  0
VERTEX
  5
11B8
  8
WHITE
 10
688.18613295499995
 20
339.53238962500001
 30
0.0
 42
0.10522127
  0
VERTEX
  5
11B9
  8
WHITE
 10
684.71272844500004
 20
334.94187414999999
 30
0.0
 42
0.05646634
  0
VERTEX
  5
11BA
  8
WHITE
 10
678.92116633499995
 20
317.76821604999998
 30
0.0
 42
-0.24889266
  0
VERTEX
  5
11BB
  8
WHITE
 10
677.87680056999989
 20
316.52909797500001
 30
0.0
 42
-0.24889266
  0
VERTEX
  5
11BC
  8
WHITE
 10
676.26524175999998
 20
316.69936852500001
 30
0.0
 42
-0.10146004
  0
VERTEX
  5
11BD
  8
WHITE
 10
671.93071143500003
 20
321.12118932499999
 30
0.0
 42
-0.23746841
  0
VERTEX
  5
11BE
  8
WHITE
 10
670.60399824000001
 20
333.48442225999997
 30
0.0
 42
-0.09782802
  0
VERTEX
  5
11BF
  8
WHITE
 10
689.56989162499985
 20
364.11303658000003
 30
0.0
 42
-0.32728806
  0
VERTEX
  5
11C0
  8
WHITE
 10
699.60848881499999
 20
366.03041783499998
 30
0.0
 42
0.28426054
  0
VERTEX
  5
11C1
  8
WHITE
 10
723.02217022000002
 20
369.954070075
 30
0.0
 42
0.28426054
  0
VERTEX
  5
11C2
  8
WHITE
 10
729.96841743499999
 20
392.65528526000003
 30
0.0
 42
-0.21922236
  0
VERTEX
  5
11C3
  8
WHITE
 10
730.21971808499995
 20
394.07954459500002
 30
0.0
 42
-0.21922236
  0
VERTEX
  5
11C4
  8
WHITE
 10
731.46542298500003
 20
394.81431393000003
 30
0.0
 42
-0.10187928
  0
VERTEX
  5
11C5
  8
WHITE
 10
749.60757954999985
 20
394.81737164499998
 30
0.0
 42
-0.21963935
  0
VERTEX
  5
11C6
  8
WHITE
 10
750.85509762000004
 20
394.08075974500002
 30
0.0
 42
-0.21963935
  0
VERTEX
  5
11C7
  8
WHITE
 10
751.10390566499996
 20
392.65352711999998
 30
0.0
 42
0.28515872
  0
VERTEX
  5
11C8
  8
WHITE
 10
758.03097004999995
 20
369.91880202499999
 30
0.0
 42
0.28515872
  0
VERTEX
  5
11C9
  8
WHITE
 10
781.47908229500001
 20
366.04092343500002
 30
0.0
 42
-0.32728806
  0
VERTEX
  5
11CA
  8
WHITE
 10
791.51816978500005
 20
364.12611812
 30
0.0
 42
-0.09782802
  0
VERTEX
  5
11CB
  8
WHITE
 10
810.49192340000002
 20
333.50237264499998
 30
0.0
 42
-0.23746841
  0
VERTEX
  5
11CC
  8
WHITE
 10
809.16838426000004
 20
321.13880046000003
 30
0.0
 42
-0.10146005
  0
VERTEX
  5
11CD
  8
WHITE
 10
804.83498767499998
 20
316.71586890499998
 30
0.0
 42
-0.24889261
  0
VERTEX
  5
11CE
  8
WHITE
 10
803.22347464999996
 20
316.54518375999999
 30
0.0
 42
-0.24889261
  0
VERTEX
  5
11CF
  8
WHITE
 10
802.17878966499995
 20
317.78403104
 30
0.0
 42
0.05646635
  0
VERTEX
  5
11D0
  8
WHITE
 10
796.38281838
 20
334.95620281999999
 30
0.0
 42
0.10522129
  0
VERTEX
  5
11D1
  8
WHITE
 10
792.90823673499995
 20
339.54582663000002
 30
0.0
 42
0.17115779
  0
VERTEX
  5
11D2
  8
WHITE
 10
771.83503239499998
 20
347.81880953000001
 30
0.0
  0
VERTEX
  5
11D3
  8
WHITE
 10
771.14370752000002
 20
347.83603163499998
 30
0.0
  0
VERTEX
  5
11D4
  8
WHITE
 10
770.45217544499985
 20
347.839204655
 30
0.0
  0
SEQEND
  5
11D5
  8
WHITE
  0
POLYLINE
  5
6F2
  8
WHITE
 66
     1
 10
0.0
 20
0.0
 30
0.0
 70
     1
  0
VERTEX
  5
11D6
  8
WHITE
 10
732.06423255499988
 20
78.587849945000002
 30
0.0
 42
0.18240526
  0
VERTEX
  5
11D7
  8
WHITE
 10
717.25123148
 20
65.471405794999995
 30
0.0
 42
-0.34481253
  0
VERTEX
  5
11D8
  8
WHITE
 10
716.86236868000003
 20
65.297060090000002
 30
0.0
 42
-0.34481253
  0
VERTEX
  5
11D9
  8
WHITE
 10
716.59970853000004
 20
65.632649685000004
 30
0.0
  0
VERTEX
  5
11DA
  8
WHITE
 10
716.59970853000004
 20
81.957293814999986
 30
0.0
 42
0.41421354
  0
VERTEX
  5
11DB
  8
WHITE
 10
716.25399427000002
 20
82.303008100000014
 30
0.0
  0
VERTEX
  5
11DC
  8
WHITE
 10
713.92042281500005
 20
82.303008100000014
 30
0.0
 42
0.41421356
  0
VERTEX
  5
11DD
  8
WHITE
 10
713.57470852999995
 20
81.957293814999986
 30
0.0
  0
VERTEX
  5
11DE
  8
WHITE
 10
713.57470852999995
 20
65.547692130000001
 30
0.0
 42
-0.34132645
  0
VERTEX
  5
11DF
  8
WHITE
 10
713.31622859499998
 20
65.213164794999997
 30
0.0
 42
-0.34132645
  0
VERTEX
  5
11E0
  8
WHITE
 10
712.92730365999989
 20
65.378869069999993
 30
0.0
 42
0.3979498
  0
VERTEX
  5
11E1
  8
WHITE
 10
675.48815266999998
 20
77.089273954999996
 30
0.0
 42
-0.20938655
  0
VERTEX
  5
11E2
  8
WHITE
 10
674.10239735000005
 20
77.031701775000002
 30
0.0
 42
-0.20938655
  0
VERTEX
  5
11E3
  8
WHITE
 10
673.120399335
 20
78.011146644999997
 30
0.0
 42
-0.2525365
  0
VERTEX
  5
11E4
  8
WHITE
 10
675.54897017500002
 20
98.010858174999996
 30
0.0
 42
-0.2519598
  0
VERTEX
  5
11E5
  8
WHITE
 10
677.01566393999985
 20
98.740424384999997
 30
0.0
 42
-0.05939096
  0
VERTEX
  5
11E6
  8
WHITE
 10
703.79429520999986
 20
94.673952470000003
 30
0.0
 42
0.24789005
  0
VERTEX
  5
11E7
  8
WHITE
 10
706.94832106000001
 20
95.368127005000005
 30
0.0
 42
0.24789005
  0
VERTEX
  5
11E8
  8
WHITE
 10
708.15278291000004
 20
98.364629690000015
 30
0.0
  0
VERTEX
  5
11E9
  8
WHITE
 10
706.43687114500005
 20
114.837380845
 30
0.0
 42
-0.31795148
  0
VERTEX
  5
11EA
  8
WHITE
 10
707.41485033499998
 20
116.57802458
 30
0.0
 42
-0.22530782
  0
VERTEX
  5
11EB
  8
WHITE
 10
723.36456672500003
 20
116.57802458
 30
0.0
 42
-0.31795148
  0
VERTEX
  5
11EC
  8
WHITE
 10
724.34254520000002
 20
114.83738092999999
 30
0.0
  0
VERTEX
  5
11ED
  8
WHITE
 10
722.62663210000005
 20
98.364629344999997
 30
0.0
 42
0.24789009
  0
VERTEX
  5
11EE
  8
WHITE
 10
723.83109463999995
 20
95.368126694999987
 30
0.0
 42
0.24789009
  0
VERTEX
  5
11EF
  8
WHITE
 10
726.98512012000003
 20
94.673952470000003
 30
0.0
 42
-0.05939096
  0
VERTEX
  5
11F0
  8
WHITE
 10
753.76375133500005
 20
98.740426110000001
 30
0.0
 42
-0.25195995
  0
VERTEX
  5
11F1
  8
WHITE
 10
755.23044668999989
 20
98.010858029999994
 30
0.0
 42
-0.2525365
  0
VERTEX
  5
11F2
  8
WHITE
 10
757.65901693000001
 20
78.011146964999995
 30
0.0
 42
-0.20938655
  0
VERTEX
  5
11F3
  8
WHITE
 10
756.67701971500003
 20
77.031701775000002
 30
0.0
 42
-0.20938655
  0
VERTEX
  5
11F4
  8
WHITE
 10
755.29126440000005
 20
77.089273969999994
 30
0.0
 42
0.20446604
  0
VERTEX
  5
11F5
  8
WHITE
 10
733.38230763499985
 20
79.052534655000002
 30
0.0
  0
VERTEX
  5
11F6
  8
WHITE
 10
732.72037240999998
 20
78.828411564999996
 30
0.0
  0
VERTEX
  5
11F7
  8
WHITE
 10
732.06423255499988
 20
78.587849945000002
 30
0.0
  0
SEQEND
  5
11F8
  8
WHITE
  0
POLYLINE
  5
716
  8
WHITE
 66
     1
 10
0.0
 20
0.0
 30
0.0
 70
     1
  0
VERTEX
  5
11F9
  8
WHITE
 10
749.12524577999989
 20
218.10105804
 30
0.0
 42
0.11228929
  0
VERTEX
  5
11FA
  8
WHITE
 10
736.45901541499995
 20
213.91671825500001
 30
0.0
 42
0.16905649
  0
VERTEX
  5
11FB
  8
WHITE
 10
735.00675994499989
 20
212.1683457
 30
0.0
 42
-0.1633463
  0
VERTEX
  5
11FC
  8
WHITE
 10
726.11142197499987
 20
201.21379508000001
 30
0.0
 42
-0.27349492
  0
VERTEX
  5
11FD
  8
WHITE
 10
725.759707445
 20
201.20288758500001
 30
0.0
 42
-0.27349492
  0
VERTEX
  5
11FE
  8
WHITE
 10
725.58062584499987
 20
201.50579336999999
 30
0.0
  0
VERTEX
  5
11FF
  8
WHITE
 10
725.58062584499987
 20
218.2010363
 30
0.0
 42
0.4142135500000001
  0
VERTEX
  5
1200
  8
WHITE
 10
725.23491157499996
 20
218.54675058500001
 30
0.0
  0
VERTEX
  5
1201
  8
WHITE
 10
722.90134012999999
 20
218.54675058500001
 30
0.0
 42
0.4142135500000001
  0
VERTEX
  5
1202
  8
WHITE
 10
722.55562584500001
 20
218.2010363
 30
0.0
  0
VERTEX
  5
1203
  8
WHITE
 10
722.55562584500001
 20
201.9034858
 30
0.0
 42
-0.27795645
  0
VERTEX
  5
1204
  8
WHITE
 10
722.37149780000004
 20
201.59785815999999
 30
0.0
 42
-0.27795645
  0
VERTEX
  5
1205
  8
WHITE
 10
722.01524757499988
 20
201.61778544000001
 30
0.0
 42
-0.15484375
  0
VERTEX
  5
1206
  8
WHITE
 10
713.73448966499996
 20
212.16834556000001
 30
0.0
 42
0.16905649
  0
VERTEX
  5
1207
  8
WHITE
 10
712.28223489499987
 20
213.91671887999999
 30
0.0
 42
0.32659442
  0
VERTEX
  5
1208
  8
WHITE
 10
676.92099847999987
 20
210.77413043000001
 30
0.0
 42
-0.24893358
  0
VERTEX
  5
1209
  8
WHITE
 10
676.13233498
 20
210.58777667999999
 30
0.0
 42
-0.24893358
  0
VERTEX
  5
120A
  8
WHITE
 10
675.53600940000001
 20
211.13651525500001
 30
0.0
  0
VERTEX
  5
120B
  8
WHITE
 10
673.20241372500004
 20
217.75487989999999
 30
0.0
 42
-0.13654047
  0
VERTEX
  5
120C
  8
WHITE
 10
673.13982697500001
 20
218.67956545000001
 30
0.0
  0
VERTEX
  5
120D
  8
WHITE
 10
675.74979904500003
 20
231.30693869000001
 30
0.0
 42
-0.29090942
  0
VERTEX
  5
120E
  8
WHITE
 10
677.04079326500005
 20
232.638277155
 30
0.0
 42
-0.09435571
  0
VERTEX
  5
120F
  8
WHITE
 10
709.46163204000004
 20
234.14485503500001
 30
0.0
 42
0.23319628
  0
VERTEX
  5
1210
  8
WHITE
 10
715.2747392
 20
236.04861048500001
 30
0.0
 42
0.23319628
  0
VERTEX
  5
1211
  8
WHITE
 10
717.30254954999998
 20
241.81961408500001
 30
0.0
  0
VERTEX
  5
1212
  8
WHITE
 10
716.01210314499997
 20
252.494629855
 30
0.0
 42
-0.39819103
  0
VERTEX
  5
1213
  8
WHITE
 10
718.13398396499986
 20
255.35891308999999
 30
0.0
 42
-0.08788189
  0
VERTEX
  5
1214
  8
WHITE
 10
730.60726772500004
 20
255.35891308999999
 30
0.0
 42
-0.39819084
  0
VERTEX
  5
1215
  8
WHITE
 10
732.72914664999996
 20
252.49462986500001
 30
0.0
  0
VERTEX
  5
1216
  8
WHITE
 10
731.43870083000002
 20
241.81961401500001
 30
0.0
 42
0.23319628
  0
VERTEX
  5
1217
  8
WHITE
 10
733.46651076000001
 20
236.04861048500001
 30
0.0
 42
0.23319628
  0
VERTEX
  5
1218
  8
WHITE
 10
739.27961791999985
 20
234.14485503500001
 30
0.0
 42
-0.09435571
  0
VERTEX
  5
1219
  8
WHITE
 10
771.70045691500002
 20
232.63827810000001
 30
0.0
 42
-0.29090942
  0
VERTEX
  5
121A
  8
WHITE
 10
772.99145084500003
 20
231.30693868500001
 30
0.0
  0
VERTEX
  5
121B
  8
WHITE
 10
775.60142257500002
 20
218.67956537000001
 30
0.0
 42
-0.13654047
  0
VERTEX
  5
121C
  8
WHITE
 10
775.53883618999987
 20
217.754879915
 30
0.0
  0
VERTEX
  5
121D
  8
WHITE
 10
773.20524008500001
 20
211.136515425
 30
0.0
 42
-0.24893358
  0
VERTEX
  5
121E
  8
WHITE
 10
772.60891497999989
 20
210.58777667999999
 30
0.0
 42
-0.24893358
  0
VERTEX
  5
121F
  8
WHITE
 10
771.82025148000002
 20
210.77413043000001
 30
0.0
 42
0.1947325
  0
VERTEX
  5
1220
  8
WHITE
 10
750.50810295999986
 20
218.20131223000001
 30
0.0
  0
VERTEX
  5
1221
  8
WHITE
 10
749.81609653999999
 20
218.15915549499999
 30
0.0
  0
VERTEX
  5
1222
  8
WHITE
 10
749.12524577999989
 20
218.10105804
 30
0.0
  0
SEQEND
  5
1223
  8
WHITE
  0
POLYLINE
  5
742
  8
WHITE
 66
     1
 10
0.0
 20
0.0
 30
0.0
 70
     1
  0
VERTEX
  5
1224
  8
WHITE
 10
768.58956468999986
 20
136.27420106
 30
0.0
 42
0.0742311
  0
VERTEX
  5
1225
  8
WHITE
 10
760.15606033999995
 20
133.49193962999999
 30
0.0
 42
0.1719886
  0
VERTEX
  5
1226
  8
WHITE
 10
756.163706445
 20
129.31911249999999
 30
0.0
 42
-0.14684378
  0
VERTEX
  5
1227
  8
WHITE
 10
747.81222582500004
 20
119.686041625
 30
0.0
 42
-0.27349493
  0
VERTEX
  5
1228
  8
WHITE
 10
747.46051121499988
 20
119.675134215
 30
0.0
 42
-0.27349493
  0
VERTEX
  5
1229
  8
WHITE
 10
747.28142961499998
 20
119.97803999999999
 30
0.0
  0
VERTEX
  5
122A
  8
WHITE
 10
747.28142961499998
 20
136.67328119999999
 30
0.0
 42
0.4142135500000001
  0
VERTEX
  5
122B
  8
WHITE
 10
746.93571532999988
 20
137.018995485
 30
0.0
  0
VERTEX
  5
122C
  8
WHITE
 10
744.60214387999986
 20
137.018995485
 30
0.0
 42
0.41421354
  0
VERTEX
  5
122D
  8
WHITE
 10
744.256429615
 20
136.67328119999999
 30
0.0
  0
VERTEX
  5
122E
  8
WHITE
 10
744.256429615
 20
120.37573243
 30
0.0
 42
-0.27795645
  0
VERTEX
  5
122F
  8
WHITE
 10
744.07230157000004
 20
120.07010479
 30
0.0
 42
-0.27795645
  0
VERTEX
  5
1230
  8
WHITE
 10
743.71605134499998
 20
120.09003207000001
 30
0.0
 42
-0.13838246
  0
VERTEX
  5
1231
  8
WHITE
 10
735.97915137999985
 20
129.319111795
 30
0.0
 42
0.1719886
  0
VERTEX
  5
1232
  8
WHITE
 10
731.98679889000005
 20
133.49193962999999
 30
0.0
 42
0.27630779
  0
VERTEX
  5
1233
  8
WHITE
 10
701.18702306499995
 20
131.260910505
 30
0.0
 42
-0.39631529
  0
VERTEX
  5
1234
  8
WHITE
 10
698.84299223000005
 20
131.59883507999999
 30
0.0
 42
-0.33506611
  0
VERTEX
  5
1235
  8
WHITE
 10
698.34282959500001
 20
150.57652669000001
 30
0.0
 42
-0.18281112
  0
VERTEX
  5
1236
  8
WHITE
 10
699.35992947
 20
151.25590969500001
 30
0.0
 42
-0.09250938
  0
VERTEX
  5
1237
  8
WHITE
 10
731.16243565499985
 20
152.61710031000001
 30
0.0
 42
0.23319629
  0
VERTEX
  5
1238
  8
WHITE
 10
736.97554288499987
 20
154.52085529999999
 30
0.0
 42
0.23319629
  0
VERTEX
  5
1239
  8
WHITE
 10
739.00335289999998
 20
160.29185891500001
 30
0.0
  0
VERTEX
  5
123A
  8
WHITE
 10
737.71290708000004
 20
170.966874765
 30
0.0
 42
-0.39819096
  0
VERTEX
  5
123B
  8
WHITE
 10
739.83478712500005
 20
173.83115788000001
 30
0.0
 42
-0.08788189
  0
VERTEX
  5
123C
  8
WHITE
 10
752.30807054499985
 20
173.831158915
 30
0.0
 42
-0.39819096
  0
VERTEX
  5
123D
  8
WHITE
 10
754.42995058999986
 20
170.96687475499999
 30
0.0
  0
VERTEX
  5
123E
  8
WHITE
 10
753.13950460000001
 20
160.29185891500001
 30
0.0
 42
0.23319625
  0
VERTEX
  5
123F
  8
WHITE
 10
755.16731703999994
 20
154.52085704000001
 30
0.0
 42
0.23319625
  0
VERTEX
  5
1240
  8
WHITE
 10
760.98042168999984
 20
152.61710166
 30
0.0
 42
-0.09212148
  0
VERTEX
  5
1241
  8
WHITE
 10
792.65286072499987
 20
151.28588268499999
 30
0.0
 42
-0.21726457
  0
VERTEX
  5
1242
  8
WHITE
 10
793.79171356500001
 20
150.41361805
 30
0.0
 42
-0.26534851
  0
VERTEX
  5
1243
  8
WHITE
 10
793.24656307500004
 20
131.89858674999999
 30
0.0
 42
-0.20626718
  0
VERTEX
  5
1244
  8
WHITE
 10
792.12985076500001
 20
131.10843246499999
 30
0.0
 42
-0.20626718
  0
VERTEX
  5
1245
  8
WHITE
 10
790.78855522000003
 20
131.377350105
 30
0.0
 42
0.18433648
  0
VERTEX
  5
1246
  8
WHITE
 10
769.95804326500001
 20
136.47748565500001
 30
0.0
  0
VERTEX
  5
1247
  8
WHITE
 10
769.27263485499986
 20
136.38371380999999
 30
0.0
  0
VERTEX
  5
1248
  8
WHITE
 10
768.58956468999986
 20
136.27420106
 30
0.0
  0
SEQEND
  5
1249
  8
WHITE
  0
POLYLINE
  5
769
  8
WHITE
 66
     1
 10
0.0
 20
0.0
 30
0.0
 70
     1
  0
VERTEX
  5
124A
  8
WHITE
 10
765.19492022500003
 20
20.839555335
 30
0.0
 42
0.0932908
  0
VERTEX
  5
124B
  8
WHITE
 10
755.73659145500005
 20
14.178495235
 30
0.0
 42
-0.13721302
  0
VERTEX
  5
124C
  8
WHITE
 10
747.55671646500002
 20
8.0178479550000006
 30
0.0
 42
-0.24784369
  0
VERTEX
  5
124D
  8
WHITE
 10
747.23588180000002
 20
8.054292255
 30
0.0
 42
-0.24784369
  0
VERTEX
  5
124E
  8
WHITE
 10
747.08508810000001
 20
8.3398169150000001
 30
0.0
  0
VERTEX
  5
124F
  8
WHITE
 10
747.08508810000001
 20
22.889918255000001
 30
0.0
 42
0.41421356
  0
VERTEX
  5
1250
  8
WHITE
 10
746.73937381500002
 20
23.235632545000001
 30
0.0
  0
VERTEX
  5
1251
  8
WHITE
 10
744.40580238999985
 20
23.235632545000001
 30
0.0
 42
0.41421356
  0
VERTEX
  5
1252
  8
WHITE
 10
744.06008810000003
 20
22.889918255000001
 30
0.0
  0
VERTEX
  5
1253
  8
WHITE
 10
744.06008810000003
 20
8.5887294700000005
 30
0.0
 42
-0.25249979
  0
VERTEX
  5
1254
  8
WHITE
 10
743.90426020999985
 20
8.2998323900000006
 30
0.0
 42
-0.25249979
  0
VERTEX
  5
1255
  8
WHITE
 10
743.57725275999996
 20
8.2713715749999999
 30
0.0
 42
-0.1282948
  0
VERTEX
  5
1256
  8
WHITE
 10
736.01358484499985
 20
14.178494635
 30
0.0
 42
0.25556603
  0
VERTEX
  5
1257
  8
WHITE
 10
707.33944514999985
 20
23.023231455000001
 30
0.0
 42
-0.27535802
  0
VERTEX
  5
1258
  8
WHITE
 10
705.66878865000001
 20
23.60702379
 30
0.0
 42
-0.36596935
  0
VERTEX
  5
1259
  8
WHITE
 10
705.74552703500001
 20
40.908359944999987
 30
0.0
 42
-0.25182042
  0
VERTEX
  5
125A
  8
WHITE
 10
707.27127402999997
 20
41.502454585000002
 30
0.0
  0
VERTEX
  5
125B
  8
WHITE
 10
728.59598905500002
 20
38.886446374999998
 30
0.0
 42
0.22571365
  0
VERTEX
  5
125C
  8
WHITE
 10
734.23081989499985
 20
40.765797069999991
 30
0.0
 42
0.22571365
  0
VERTEX
  5
125D
  8
WHITE
 10
736.32832110000004
 20
46.32311353499999
 30
0.0
  0
VERTEX
  5
125E
  8
WHITE
 10
735.35355637999999
 20
58.02791594
 30
0.0
 42
-0.13951866
  0
VERTEX
  5
125F
  8
WHITE
 10
745.87508817499986
 20
59.927730459999992
 30
0.0
 42
-0.13951866
  0
VERTEX
  5
1260
  8
WHITE
 10
756.39662063000003
 20
58.027915499999999
 30
0.0
  0
VERTEX
  5
1261
  8
WHITE
 10
755.42185500000005
 20
46.323113599999999
 30
0.0
 42
0.22571365
  0
VERTEX
  5
1262
  8
WHITE
 10
757.51935631000003
 20
40.765797069999991
 30
0.0
 42
0.22571365
  0
VERTEX
  5
1263
  8
WHITE
 10
763.15418714999987
 20
38.886446374999998
 30
0.0
  0
VERTEX
  5
1264
  8
WHITE
 10
784.47890230999985
 20
41.502453434999993
 30
0.0
 42
-0.25182042
  0
VERTEX
  5
1265
  8
WHITE
 10
786.00464831500005
 20
40.908359224999998
 30
0.0
 42
-0.36596935
  0
VERTEX
  5
1266
  8
WHITE
 10
786.08138887999996
 20
23.607022685
 30
0.0
 42
-0.27535802
  0
VERTEX
  5
1267
  8
WHITE
 10
784.41073105500004
 20
23.023231455000001
 30
0.0
 42
0.14717813
  0
VERTEX
  5
1268
  8
WHITE
 10
766.46607731500001
 20
21.385120149999999
 30
0.0
  0
VERTEX
  5
1269
  8
WHITE
 10
765.82748173000004
 20
21.119367395000001
 30
0.0
  0
VERTEX
  5
126A
  8
WHITE
 10
765.19492022500003
 20
20.839555335
 30
0.0
  0
SEQEND
  5
126B
  8
WHITE
  0
POLYLINE
  5
78C
  8
WHITE
 66
     1
 10
0.0
 20
0.0
 30
0.0
 70
     1
  0
VERTEX
  5
126C
  8
WHITE
 10
782.21684421500004
 20
180.02369698499999
 30
0.0
 42
0.10883767
  0
VERTEX
  5
126D
  8
WHITE
 10
774.89470667499995
 20
181.84852229500001
 30
0.0
 42
-0.22573285
  0
VERTEX
  5
126E
  8
WHITE
 10
773.57160678499997
 20
182.52302235499999
 30
0.0
 42
-0.22573285
  0
VERTEX
  5
126F
  8
WHITE
 10
773.26013134499999
 20
183.97509903
 30
0.0
  0
VERTEX
  5
1270
  8
WHITE
 10
775.53025859499985
 20
193.55304255999999
 30
0.0
 42
-0.26612006
  0
VERTEX
  5
1271
  8
WHITE
 10
776.70519378999995
 20
194.80692361999999
 30
0.0
 42
-0.05697354
  0
VERTEX
  5
1272
  8
WHITE
 10
788.07795167999996
 20
196.92206483499999
 30
0.0
 42
0.41887151
  0
VERTEX
  5
1273
  8
WHITE
 10
792.88152509999986
 20
202.54014526500001
 30
0.0
  0
VERTEX
  5
1274
  8
WHITE
 10
792.33282563
 20
208.909444885
 30
0.0
 42
-0.34477372
  0
VERTEX
  5
1275
  8
WHITE
 10
792.91493199000001
 20
209.80164555499999
 30
0.0
 42
-0.16583846
  0
VERTEX
  5
1276
  8
WHITE
 10
808.92197376000001
 20
209.80164433499999
 30
0.0
 42
-0.34477372
  0
VERTEX
  5
1277
  8
WHITE
 10
809.50407896000002
 20
208.90944457000001
 30
0.0
  0
VERTEX
  5
1278
  8
WHITE
 10
808.95538025999986
 20
202.54014458500001
 30
0.0
 42
0.41887151
  0
VERTEX
  5
1279
  8
WHITE
 10
813.75895455499995
 20
196.92206570499999
 30
0.0
 42
-0.05697354
  0
VERTEX
  5
127A
  8
WHITE
 10
825.13171234499998
 20
194.80692346000001
 30
0.0
 42
-0.26612006
  0
VERTEX
  5
127B
  8
WHITE
 10
826.30664716000001
 20
193.55304244499999
 30
0.0
  0
VERTEX
  5
127C
  8
WHITE
 10
828.57677524999986
 20
183.97509894999999
 30
0.0
 42
-0.22573285
  0
VERTEX
  5
127D
  8
WHITE
 10
828.26529939500006
 20
182.52302235499999
 30
0.0
 42
-0.22573285
  0
VERTEX
  5
127E
  8
WHITE
 10
826.94219950000002
 20
181.84852229500001
 30
0.0
 42
0.26713393
  0
VERTEX
  5
127F
  8
WHITE
 10
812.02486658999999
 20
172.71288830500001
 30
0.0
 42
-0.13786105
  0
VERTEX
  5
1280
  8
WHITE
 10
810.06483933499987
 20
170.704507355
 30
0.0
 42
-0.09284132
  0
VERTEX
  5
1281
  8
WHITE
 10
803.131952985
 20
168.264289695
 30
0.0
 42
-0.2189098
  0
VERTEX
  5
1282
  8
WHITE
 10
802.85414556499995
 20
168.34349365
 30
0.0
 42
-0.2189098
  0
VERTEX
  5
1283
  8
WHITE
 10
802.73345309000013
 20
168.605950415
 30
0.0
  0
VERTEX
  5
1284
  8
WHITE
 10
802.73345309000013
 20
183.271803815
 30
0.0
 42
0.4142135500000001
  0
VERTEX
  5
1285
  8
WHITE
 10
802.38773879999985
 20
183.61751810000001
 30
0.0
  0
VERTEX
  5
1286
  8
WHITE
 10
800.05416734999994
 20
183.61751810000001
 30
0.0
 42
0.41421354
  0
VERTEX
  5
1287
  8
WHITE
 10
799.70845309000003
 20
183.271803815
 30
0.0
  0
VERTEX
  5
1288
  8
WHITE
 10
799.70845309000003
 20
168.52210260000001
 30
0.0
 42
-0.21483421
  0
VERTEX
  5
1289
  8
WHITE
 10
799.59181962499986
 20
168.2631811
 30
0.0
 42
-0.21483421
  0
VERTEX
  5
128A
  8
WHITE
 10
799.32061651000004
 20
168.17896446
 30
0.0
 42
-0.10069876
  0
VERTEX
  5
128B
  8
WHITE
 10
791.77206610500002
 20
170.70450607000001
 30
0.0
 42
-0.13786105
  0
VERTEX
  5
128C
  8
WHITE
 10
789.81203806499991
 20
172.712887475
 30
0.0
 42
0.1327813
  0
VERTEX
  5
128D
  8
WHITE
 10
783.48429884500001
 20
179.327487335
 30
0.0
  0
VERTEX
  5
128E
  8
WHITE
 10
782.85774996500004
 20
179.68866055999999
 30
0.0
  0
VERTEX
  5
128F
  8
WHITE
 10
782.21684421500004
 20
180.02369698499999
 30
0.0
  0
SEQEND
  5
1290
  8
WHITE
  0
POLYLINE
  5
7B2
  8
WHITE
 66
     1
 10
0.0
 20
0.0
 30
0.0
 70
     1
  0
VERTEX
  5
1291
  8
WHITE
 10
786.76440837500002
 20
71.283192869999993
 30
0.0
 42
0.11489371
  0
VERTEX
  5
1292
  8
WHITE
 10
779.67604351
 20
73.399702090000005
 30
0.0
 42
-0.36326526
  0
VERTEX
  5
1293
  8
WHITE
 10
781.06196681500001
 20
83.687562299999996
 30
0.0
 42
0.21213873
  0
VERTEX
  5
1294
  8
WHITE
 10
790.34121419999985
 20
89.583248780000005
 30
0.0
 42
0.21213873
  0
VERTEX
  5
1295
  8
WHITE
 10
792.18622785499986
 20
100.42112086
 30
0.0
 42
-0.14806211
  0
VERTEX
  5
1296
  8
WHITE
 10
806.54043192999984
 20
100.421121035
 30
0.0
 42
0.21213874
  0
VERTEX
  5
1297
  8
WHITE
 10
808.38544594500001
 20
89.583248484999999
 30
0.0
 42
0.21213874
  0
VERTEX
  5
1298
  8
WHITE
 10
817.66469383000015
 20
83.687562194999984
 30
0.0
 42
-0.36326529
  0
VERTEX
  5
1299
  8
WHITE
 10
819.05061628999999
 20
73.399702915000006
 30
0.0
 42
0.23750893
  0
VERTEX
  5
129A
  8
WHITE
 10
806.37931896500015
 20
66.013547860000003
 30
0.0
  0
VERTEX
  5
129B
  8
WHITE
 10
800.91142126
 20
66.134141099999994
 30
0.0
 42
-0.40776952
  0
VERTEX
  5
129C
  8
WHITE
 10
800.57332997499998
 20
66.479772414999999
 30
0.0
  0
VERTEX
  5
129D
  8
WHITE
 10
800.57332997499998
 20
78.312626885
 30
0.0
 42
0.41421346
  0
VERTEX
  5
129E
  8
WHITE
 10
800.22761580999986
 20
78.65834117
 30
0.0
  0
VERTEX
  5
129F
  8
WHITE
 10
797.89404425999987
 20
78.65834117
 30
0.0
 42
0.41421347
  0
VERTEX
  5
12A0
  8
WHITE
 10
797.548329975
 20
78.312626885
 30
0.0
  0
VERTEX
  5
12A1
  8
WHITE
 10
797.548329975
 20
66.466429570000003
 30
0.0
 42
-0.40776942
  0
VERTEX
  5
12A2
  8
WHITE
 10
797.21023868999987
 20
66.120798254999997
 30
0.0
  0
VERTEX
  5
12A3
  8
WHITE
 10
792.34734203000005
 20
66.013547314999997
 30
0.0
 42
0.09787516
  0
VERTEX
  5
12A4
  8
WHITE
 10
787.93653613499987
 20
70.546023860000005
 30
0.0
  0
VERTEX
  5
12A5
  8
WHITE
 10
787.35829911999997
 20
70.927053395000002
 30
0.0
  0
VERTEX
  5
12A6
  8
WHITE
 10
786.76440837500002
 20
71.283192869999993
 30
0.0
  0
SEQEND
  5
12A7
  8
WHITE
  0
POLYLINE
  5
7CA
  8
WHITE
 66
     1
 10
0.0
 20
0.0
 30
0.0
 70
     1
  0
VERTEX
  5
12A8
  8
WHITE
 10
811.80394187000002
 20
237.45329498999999
 30
0.0
 42
-0.12069699
  0
VERTEX
  5
12A9
  8
WHITE
 10
808.61927985499995
 20
242.662896655
 30
0.0
 42
0.26129316
  0
VERTEX
  5
12AA
  8
WHITE
 10
806.14714831000003
 20
244.97137530000001
 30
0.0
  0
VERTEX
  5
12AB
  8
WHITE
 10
796.43251637000003
 20
247.348923375
 30
0.0
 42
-0.40429777
  0
VERTEX
  5
12AC
  8
WHITE
 10
795.15143060000003
 20
249.38159544499999
 30
0.0
  0
VERTEX
  5
12AD
  8
WHITE
 10
797.37722538499986
 20
260.03059114000001
 30
0.0
 42
-0.26119744
  0
VERTEX
  5
12AE
  8
WHITE
 10
798.48823031500001
 20
261.30494062999998
 30
0.0
  0
VERTEX
  5
12AF
  8
WHITE
 10
803.56370853999988
 20
263.11627907000002
 30
0.0
 42
-0.10650505
  0
VERTEX
  5
12B0
  8
WHITE
 10
805.72955137500003
 20
263.400715945
 30
0.0
  0
VERTEX
  5
12B1
  8
WHITE
 10
812.29233554500001
 20
262.86380609999998
 30
0.0
 42
0.23165266
  0
VERTEX
  5
12B2
  8
WHITE
 10
816.53809260000003
 20
264.52841165000001
 30
0.0
 42
0.23165266
  0
VERTEX
  5
12B3
  8
WHITE
 10
817.82729173999985
 20
268.90280645500002
 30
0.0
  0
VERTEX
  5
12B4
  8
WHITE
 10
816.67474593999987
 20
275.67085889999998
 30
0.0
 42
-0.38540513
  0
VERTEX
  5
12B5
  8
WHITE
 10
817.92101506999995
 20
277.627897265
 30
0.0
 42
-0.13481993
  0
VERTEX
  5
12B6
  8
WHITE
 10
832.20421873999987
 20
277.62789791500001
 30
0.0
 42
-0.38540511
  0
VERTEX
  5
12B7
  8
WHITE
 10
833.45048715999997
 20
275.67085923000002
 30
0.0
  0
VERTEX
  5
12B8
  8
WHITE
 10
832.29794181
 20
268.90280645500002
 30
0.0
 42
0.23165266
  0
VERTEX
  5
12B9
  8
WHITE
 10
833.58714094499999
 20
264.52841165000001
 30
0.0
 42
0.23165266
  0
VERTEX
  5
12BA
  8
WHITE
 10
837.832898
 20
262.86380609999998
 30
0.0
  0
VERTEX
  5
12BB
  8
WHITE
 10
844.39568188500004
 20
263.40071511999997
 30
0.0
 42
-0.10650506
  0
VERTEX
  5
12BC
  8
WHITE
 10
846.56152512999995
 20
263.11627951499997
 30
0.0
  0
VERTEX
  5
12BD
  8
WHITE
 10
851.63700335999988
 20
261.30494099499998
 30
0.0
 42
-0.26119743
  0
VERTEX
  5
12BE
  8
WHITE
 10
852.74800794500004
 20
260.03059109999998
 30
0.0
  0
VERTEX
  5
12BF
  8
WHITE
 10
854.97380310499989
 20
249.381595745
 30
0.0
 42
-0.40429777
  0
VERTEX
  5
12C0
  8
WHITE
 10
853.69271717499987
 20
247.34892335500001
 30
0.0
  0
VERTEX
  5
12C1
  8
WHITE
 10
843.97808523499987
 20
244.97137530000001
 30
0.0
 42
0.26129322
  0
VERTEX
  5
12C2
  8
WHITE
 10
841.50595314999998
 20
242.66289609
 30
0.0
 42
-0.38705108
  0
VERTEX
  5
12C3
  8
WHITE
 10
826.544628225
 20
234.02197445499999
 30
0.0
 42
-0.35260019
  0
VERTEX
  5
12C4
  8
WHITE
 10
826.27261677499985
 20
234.35974103000001
 30
0.0
  0
VERTEX
  5
12C5
  8
WHITE
 10
826.27261677499985
 20
247.902925315
 30
0.0
 42
0.4142133700000001
  0
VERTEX
  5
12C6
  8
WHITE
 10
825.92690248999997
 20
248.24863959999999
 30
0.0
  0
VERTEX
  5
12C7
  8
WHITE
 10
823.59333088999995
 20
248.24863959999999
 30
0.0
 42
0.41421342
  0
VERTEX
  5
12C8
  8
WHITE
 10
823.24761677499998
 20
247.902925315
 30
0.0
  0
VERTEX
  5
12C9
  8
WHITE
 10
823.24761677499998
 20
234.243285445
 30
0.0
 42
-0.36653288
  0
VERTEX
  5
12CA
  8
WHITE
 10
822.95885356999986
 20
233.90229407000001
 30
0.0
 42
-0.21226215
  0
VERTEX
  5
12CB
  8
WHITE
 10
812.86546824499987
 20
236.50997189500001
 30
0.0
  0
VERTEX
  5
12CC
  8
WHITE
 10
812.59036781999998
 20
236.73471234499999
 30
0.0
  0
VERTEX
  5
12CD
  8
WHITE
 10
812.32164488000001
 20
236.96693675500001
 30
0.0
  0
VERTEX
  5
12CE
  8
WHITE
 10
812.05945202999987
 20
237.20650950999999
 30
0.0
  0
VERTEX
  5
12CF
  8
WHITE
 10
811.80394187000002
 20
237.45329498999999
 30
0.0
  0
SEQEND
  5
12D0
  8
WHITE
  0
POLYLINE
  5
7F4
  8
WHITE
 66
     1
 10
0.0
 20
0.0
 30
0.0
 70
     1
  0
VERTEX
  5
12D1
  8
WHITE
 10
849.94847397499984
 20
389.52465167999998
 30
0.0
 42
-0.27372048
  0
VERTEX
  5
12D2
  8
WHITE
 10
835.70678115999999
 20
380.75113056499998
 30
0.0
 42
-0.41943119
  0
VERTEX
  5
12D3
  8
WHITE
 10
835.35491998999987
 20
381.09679019999999
 30
0.0
  0
VERTEX
  5
12D4
  8
WHITE
 10
835.35491998999987
 20
393.5669413
 30
0.0
 42
0.4142135500000001
  0
VERTEX
  5
12D5
  8
WHITE
 10
835.00920571999995
 20
393.91265558499998
 30
0.0
  0
VERTEX
  5
12D6
  8
WHITE
 10
832.67563427499999
 20
393.91265558499998
 30
0.0
 42
0.4142133700000001
  0
VERTEX
  5
12D7
  8
WHITE
 10
832.32991999000001
 20
393.5669413
 30
0.0
  0
VERTEX
  5
12D8
  8
WHITE
 10
832.32991999000001
 20
381.09741767000003
 30
0.0
 42
-0.4084105100000001
  0
VERTEX
  5
12D9
  8
WHITE
 10
831.99106875500013
 20
380.75177130999998
 30
0.0
 42
-0.28386046
  0
VERTEX
  5
12DA
  8
WHITE
 10
817.13136612999995
 20
389.52465143000001
 30
0.0
 42
0.28018049
  0
VERTEX
  5
12DB
  8
WHITE
 10
800.72020761500005
 20
395.14800545000003
 30
0.0
 42
-0.20273307
  0
VERTEX
  5
12DC
  8
WHITE
 10
799.39647235500001
 20
395.39409559500001
 30
0.0
 42
-0.20273307
  0
VERTEX
  5
12DD
  8
WHITE
 10
798.65085061000002
 20
396.51520379999999
 30
0.0
 42
-0.08724201
  0
VERTEX
  5
12DE
  8
WHITE
 10
798.48348639499989
 20
409.57767746000002
 30
0.0
 42
-0.4014655400000001
  0
VERTEX
  5
12DF
  8
WHITE
 10
800.39229831499995
 20
411.01683443499991
 30
0.0
  0
VERTEX
  5
12E0
  8
WHITE
 10
819.58587674499995
 20
408.75094089999988
 30
0.0
 42
0.22974407
  0
VERTEX
  5
12E1
  8
WHITE
 10
824.57485714500001
 20
410.48289947500001
 30
0.0
 42
0.22974407
  0
VERTEX
  5
12E2
  8
WHITE
 10
826.30290207500002
 20
415.47323717499989
 30
0.0
  0
VERTEX
  5
12E3
  8
WHITE
 10
824.89706261000003
 20
427.30188248500002
 30
0.0
 42
-0.19844946
  0
VERTEX
  5
12E4
  8
WHITE
 10
842.18277736499988
 20
427.30188248500002
 30
0.0
  0
VERTEX
  5
12E5
  8
WHITE
 10
840.77694035999991
 20
415.47323764499998
 30
0.0
 42
0.22974407
  0
VERTEX
  5
12E6
  8
WHITE
 10
842.50498404999985
 20
410.48290070000002
 30
0.0
 42
0.22974407
  0
VERTEX
  5
12E7
  8
WHITE
 10
847.49396315499985
 20
408.75094192499989
 30
0.0
  0
VERTEX
  5
12E8
  8
WHITE
 10
866.68754155999989
 20
411.01683530000003
 30
0.0
 42
-0.4014655400000001
  0
VERTEX
  5
12E9
  8
WHITE
 10
868.59635290499989
 20
409.57767733999992
 30
0.0
 42
-0.08724201
  0
VERTEX
  5
12EA
  8
WHITE
 10
868.42898766500002
 20
396.51520412500003
 30
0.0
 42
-0.20273307
  0
VERTEX
  5
12EB
  8
WHITE
 10
867.68336666499988
 20
395.39409703500002
 30
0.0
 42
-0.20273307
  0
VERTEX
  5
12EC
  8
WHITE
 10
866.35963240499996
 20
395.14800569499999
 30
0.0
 42
0.25797203
  0
VERTEX
  5
12ED
  8
WHITE
 10
850.87629789000005
 20
390.54951357499999
 30
0.0
  0
VERTEX
  5
12EE
  8
WHITE
 10
850.62415547499995
 20
390.30682768499997
 30
0.0
  0
VERTEX
  5
12EF
  8
WHITE
 10
850.37020314999995
 20
390.06459565500001
 30
0.0
  0
VERTEX
  5
12F0
  8
WHITE
 10
850.24970492499995
 20
389.93920910000003
 30
0.0
  0
VERTEX
  5
12F1
  8
WHITE
 10
850.13734221499988
 20
389.80860711499997
 30
0.0
  0
VERTEX
  5
12F2
  8
WHITE
 10
850.03597767500003
 20
389.67101341
 30
0.0
  0
VERTEX
  5
12F3
  8
WHITE
 10
849.94847397499984
 20
389.52465167999998
 30
0.0
  0
SEQEND
  5
12F4
  8
WHITE
  0
POLYLINE
  5
819
  8
WHITE
 66
     1
 10
0.0
 20
0.0
 30
0.0
 70
     1
  0
VERTEX
  5
12F5
  8
WHITE
 10
996.01576742500004
 20
283.81357513500001
 30
0.0
 42
-0.23669808
  0
VERTEX
  5
12F6
  8
WHITE
 10
999.90016876499999
 20
247.04892730500001
 30
0.0
 42
-0.36099752
  0
VERTEX
  5
12F7
  8
WHITE
 10
999.51653156999987
 20
246.830114165
 30
0.0
  0
VERTEX
  5
12F8
  8
WHITE
 10
970.37580190000006
 20
251.96841122999999
 30
0.0
 42
0.4142132000000001
  0
VERTEX
  5
12F9
  8
WHITE
 10
969.97530827499997
 20
251.68798296
 30
0.0
  0
VERTEX
  5
12FA
  8
WHITE
 10
969.57008709999991
 20
249.38986320000001
 30
0.0
 42
0.41421315
  0
VERTEX
  5
12FB
  8
WHITE
 10
969.85051708000003
 20
248.98936785000001
 30
0.0
  0
VERTEX
  5
12FC
  8
WHITE
 10
998.98170402999995
 20
243.85275454500001
 30
0.0
 42
-0.22783686
  0
VERTEX
  5
12FD
  8
WHITE
 10
999.22503022499995
 20
243.678100105
 30
0.0
 42
-0.22783686
  0
VERTEX
  5
12FE
  8
WHITE
 10
999.24065271500001
 20
243.378989585
 30
0.0
 42
-0.20108765
  0
VERTEX
  5
12FF
  8
WHITE
 10
970.07815157000005
 20
214.640583545
 30
0.0
 42
-0.31427405
  0
VERTEX
  5
1300
  8
WHITE
 10
966.22503765500005
 20
215.53386473
 30
0.0
 42
0.27400752
  0
VERTEX
  5
1301
  8
WHITE
 10
955.19088749000002
 20
218.97039423000001
 30
0.0
 42
0.27400752
  0
VERTEX
  5
1302
  8
WHITE
 10
946.87677803999998
 20
210.94307731999999
 30
0.0
 42
-0.08386474
  0
VERTEX
  5
1303
  8
WHITE
 10
940.48453615000005
 20
206.573700715
 30
0.0
 42
0.31196994
  0
VERTEX
  5
1304
  8
WHITE
 10
933.63464520499986
 20
203.80402698500001
 30
0.0
 42
0.31196994
  0
VERTEX
  5
1305
  8
WHITE
 10
933.80495432500015
 20
196.41734335000001
 30
0.0
 42
-0.37998501
  0
VERTEX
  5
1306
  8
WHITE
 10
925.22504660000016
 20
181.40655656000001
 30
0.0
 42
0.38005663
  0
VERTEX
  5
1307
  8
WHITE
 10
919.29907597500005
 20
178.07254506500001
 30
0.0
 42
0.38005663
  0
VERTEX
  5
1308
  8
WHITE
 10
921.91219512500004
 20
171.79525513999999
 30
0.0
 42
-0.38937995
  0
VERTEX
  5
1309
  8
WHITE
 10
914.70018107499993
 20
156.89483974000001
 30
0.0
 42
0.28552382
  0
VERTEX
  5
130A
  8
WHITE
 10
910.81341028999987
 20
153.26131982999999
 30
0.0
 42
0.28552382
  0
VERTEX
  5
130B
  8
WHITE
 10
912.35235869500002
 20
148.16807868500001
 30
0.0
 42
-0.22784148
  0
VERTEX
  5
130C
  8
WHITE
 10
913.23344057999986
 20
136.84512111500001
 30
0.0
 42
-0.22784148
  0
VERTEX
  5
130D
  8
WHITE
 10
904.94199473000003
 20
129.08383261500001
 30
0.0
 42
0.25699656
  0
VERTEX
  5
130E
  8
WHITE
 10
901.53060804500012
 20
124.01924863000001
 30
0.0
 42
0.25699656
  0
VERTEX
  5
130F
  8
WHITE
 10
903.98390597000002
 20
118.42738739000001
 30
0.0
 42
-0.35023882
  0
VERTEX
  5
1310
  8
WHITE
 10
901.6201254749999
 20
95.355482554999995
 30
0.0
 42
0.20334244
  0
VERTEX
  5
1311
  8
WHITE
 10
899.90429216999985
 20
92.638928225000001
 30
0.0
 42
0.20334244
  0
VERTEX
  5
1312
  8
WHITE
 10
900.66518263
 20
89.517262474999995
 30
0.0
 42
0.20334244
  0
VERTEX
  5
1313
  8
WHITE
 10
903.43859563499996
 20
87.894939554999993
 30
0.0
 42
0.20334244
  0
VERTEX
  5
1314
  8
WHITE
 10
906.53253794
 20
88.761699870000001
 30
0.0
 42
-0.37511989
  0
VERTEX
  5
1315
  8
WHITE
 10
918.45800715999985
 20
78.522648794999995
 30
0.0
 42
-0.3752268
  0
VERTEX
  5
1316
  8
WHITE
 10
929.71467628499988
 20
62.531547969999998
 30
0.0
  0
VERTEX
  5
1317
  8
WHITE
 10
927.72071577500003
 20
36.91372272000001
 30
0.0
 42
-0.21152906
  0
VERTEX
  5
1318
  8
WHITE
 10
927.58781383999985
 20
36.667289015000001
 30
0.0
 42
-0.21152906
  0
VERTEX
  5
1319
  8
WHITE
 10
927.31601071499995
 20
36.600087729999998
 30
0.0
  0
VERTEX
  5
131A
  8
WHITE
 10
887.26127872999984
 20
43.662816245000002
 30
0.0
 42
-0.41421335
  0
VERTEX
  5
131B
  8
WHITE
 10
886.98084990500001
 20
44.063311769999999
 30
0.0
  0
VERTEX
  5
131C
  8
WHITE
 10
890.36036011500005
 20
63.229472145000003
 30
0.0
 42
0.41421326
  0
VERTEX
  5
131D
  8
WHITE
 10
890.07993160499996
 20
63.629965810000002
 30
0.0
  0
VERTEX
  5
131E
  8
WHITE
 10
887.78181209000002
 20
64.035186945000007
 30
0.0
 42
0.41421325
  0
VERTEX
  5
131F
  8
WHITE
 10
887.38131675499983
 20
63.754757065
 30
0.0
  0
VERTEX
  5
1320
  8
WHITE
 10
884.00180758500005
 20
44.588598099999992
 30
0.0
 42
-0.4142134300000001
  0
VERTEX
  5
1321
  8
WHITE
 10
883.60131285999989
 20
44.308168790000003
 30
0.0
  0
VERTEX
  5
1322
  8
WHITE
 10
837.18653285499988
 20
52.492346599999991
 30
0.0
 42
-0.32479457
  0
VERTEX
  5
1323
  8
WHITE
 10
836.92119987499996
 20
58.490077044999992
 30
0.0
 42
-0.25467216
  0
VERTEX
  5
1324
  8
WHITE
 10
835.12869235000005
 20
64.973194370000002
 30
0.0
 42
-0.25467216
  0
VERTEX
  5
1325
  8
WHITE
 10
839.60293193500013
 20
69.995653050000001
 30
0.0
  0
VERTEX
  5
1326
  8
WHITE
 10
855.82654871499994
 20
68.627823184999997
 30
0.0
 42
0.4142132800000001
  0
VERTEX
  5
1327
  8
WHITE
 10
856.20008594499996
 20
68.943270595000001
 30
0.0
  0
VERTEX
  5
1328
  8
WHITE
 10
856.39613547500005
 20
71.268591145000002
 30
0.0
 42
0.41421344
  0
VERTEX
  5
1329
  8
WHITE
 10
856.08068797500005
 20
71.642128380000003
 30
0.0
  0
VERTEX
  5
132A
  8
WHITE
 10
840.44024960499996
 20
72.960792569999995
 30
0.0
 42
-0.22209401
  0
VERTEX
  5
132B
  8
WHITE
 10
837.05824367499997
 20
84.885765875000004
 30
0.0
 42
-0.22209401
  0
VERTEX
  5
132C
  8
WHITE
 10
844.03499760499994
 20
95.131148109999984
 30
0.0
  0
VERTEX
  5
132D
  8
WHITE
 10
860.08642112999985
 20
92.319293029999983
 30
0.0
 42
0.41421357
  0
VERTEX
  5
132E
  8
WHITE
 10
860.48660293499995
 20
92.600168444999994
 30
0.0
  0
VERTEX
  5
132F
  8
WHITE
 10
860.889261315
 20
94.898738184999985
 30
0.0
 42
0.41421357
  0
VERTEX
  5
1330
  8
WHITE
 10
860.60838589999992
 20
95.298919995000006
 30
0.0
  0
VERTEX
  5
1331
  8
WHITE
 10
845.20992509999985
 20
97.996392130000004
 30
0.0
 42
-0.2520011
  0
VERTEX
  5
1332
  8
WHITE
 10
842.71023547000004
 20
110.50469591
 30
0.0
 42
-0.2520011
  0
VERTEX
  5
1333
  8
WHITE
 10
851.77304007500004
 20
119.480868285
 30
0.0
  0
VERTEX
  5
1334
  8
WHITE
 10
865.40368316000001
 20
116.20927546999999
 30
0.0
 42
0.41421353
  0
VERTEX
  5
1335
  8
WHITE
 10
865.82053625499987
 20
116.46475689
 30
0.0
  0
VERTEX
  5
1336
  8
WHITE
 10
866.365166445
 20
118.7338817
 30
0.0
 42
0.41421348
  0
VERTEX
  5
1337
  8
WHITE
 10
866.10968679999985
 20
119.150734785
 30
0.0
  0
VERTEX
  5
1338
  8
WHITE
 10
851.5499403099999
 20
122.645328745
 30
0.0
 42
-0.25784773
  0
VERTEX
  5
1339
  8
WHITE
 10
849.93067678499995
 20
133.65374244
 30
0.0
 42
-0.25784773
  0
VERTEX
  5
133A
  8
WHITE
 10
858.38742152500004
 20
140.88497019499999
 30
0.0
  0
VERTEX
  5
133B
  8
WHITE
 10
872.81887084499999
 20
137.4365129
 30
0.0
 42
0.4142135200000001
  0
VERTEX
  5
133C
  8
WHITE
 10
873.23546610999995
 20
137.69241367500001
 30
0.0
  0
VERTEX
  5
133D
  8
WHITE
 10
873.77781313000003
 20
139.96208540000001
 30
0.0
 42
0.41421341
  0
VERTEX
  5
133E
  8
WHITE
 10
873.52191426000002
 20
140.378682355
 30
0.0
  0
VERTEX
  5
133F
  8
WHITE
 10
859.85400778999986
 20
143.64468582999999
 30
0.0
 42
-0.29790645
  0
VERTEX
  5
1340
  8
WHITE
 10
858.07544211999993
 20
155.86704355000001
 30
0.0
 42
-0.29790645
  0
VERTEX
  5
1341
  8
WHITE
 10
868.55855591500006
 20
162.39801775500001
 30
0.0
  0
VERTEX
  5
1342
  8
WHITE
 10
880.13700443000005
 20
159.27769223000001
 30
0.0
 42
0.41421348
  0
VERTEX
  5
1343
  8
WHITE
 10
880.56076781499996
 20
159.521539835
 30
0.0
  0
VERTEX
  5
1344
  8
WHITE
 10
881.16798839
 20
161.77472428499999
 30
0.0
 42
0.4142131800000001
  0
VERTEX
  5
1345
  8
WHITE
 10
880.92414098999996
 20
162.198487615
 30
0.0
  0
VERTEX
  5
1346
  8
WHITE
 10
870.34129731499991
 20
165.05050197
 30
0.0
 42
-0.27114201
  0
VERTEX
  5
1347
  8
WHITE
 10
866.72763555499989
 20
176.89209296499999
 30
0.0
 42
-0.27114201
  0
VERTEX
  5
1348
  8
WHITE
 10
875.28307636500006
 20
185.841185395
 30
0.0
 42
-0.15853456
  0
VERTEX
  5
1349
  8
WHITE
 10
875.49679271499997
 20
185.83346197
 30
0.0
  0
VERTEX
  5
134A
  8
WHITE
 10
889.56285257499997
 20
180.68980382999999
 30
0.0
 42
0.4142133000000001
  0
VERTEX
  5
134B
  8
WHITE
 10
890.00626937000004
 20
180.89575883000001
 30
0.0
  0
VERTEX
  5
134C
  8
WHITE
 10
890.80770402999997
 20
183.08739463000001
 30
0.0
 42
0.4142134900000001
  0
VERTEX
  5
134D
  8
WHITE
 10
890.60174874999996
 20
183.53081152999999
 30
0.0
  0
VERTEX
  5
134E
  8
WHITE
 10
877.16530785500004
 20
188.44423026499999
 30
0.0
 42
-0.18234711
  0
VERTEX
  5
134F
  8
WHITE
 10
876.98044081
 20
188.60354857499999
 30
0.0
 42
-0.25772269
  0
VERTEX
  5
1350
  8
WHITE
 10
877.04679035000004
 20
200.23028378500001
 30
0.0
 42
-0.25772269
  0
VERTEX
  5
1351
  8
WHITE
 10
886.921436965
 20
206.36841952
 30
0.0
  0
VERTEX
  5
1352
  8
WHITE
 10
898.71368845999984
 20
201.25601825499999
 30
0.0
 42
0.4142132700000001
  0
VERTEX
  5
1353
  8
WHITE
 10
899.16838972000005
 20
201.435694015
 30
0.0
  0
VERTEX
  5
1354
  8
WHITE
 10
900.09660609999992
 20
203.57671528500001
 30
0.0
 42
0.41421309
  0
VERTEX
  5
1355
  8
WHITE
 10
899.91693031499995
 20
204.03141656
 30
0.0
  0
VERTEX
  5
1356
  8
WHITE
 10
888.32931288999998
 20
209.05509745500001
 30
0.0
 42
-0.3925098
  0
VERTEX
  5
1357
  8
WHITE
 10
899.44762597499994
 20
230.72181470999999
 30
0.0
 42
-0.20307306
  0
VERTEX
  5
1358
  8
WHITE
 10
899.71695996000005
 20
230.70777434499999
 30
0.0
  0
VERTEX
  5
1359
  8
WHITE
 10
913.28280754499986
 20
224.10819407
 30
0.0
 42
0.21374203
  0
VERTEX
  5
135A
  8
WHITE
 10
913.56532760499999
 20
224.099254755
 30
0.0
 42
0.21374203
  0
VERTEX
  5
135B
  8
WHITE
 10
913.76008601499996
 20
224.30411197500001
 30
0.0
  0
VERTEX
  5
135C
  8
WHITE
 10
914.5411211149999
 20
226.51921068499999
 30
0.0
 42
0.38126405
  0
VERTEX
  5
135D
  8
WHITE
 10
914.36631746499995
 20
226.94504966
 30
0.0
  0
VERTEX
  5
135E
  8
WHITE
 10
901.70414426499985
 20
233.105007685
 30
0.0
 42
-0.20286567
  0
VERTEX
  5
135F
  8
WHITE
 10
900.01426268499995
 20
243.86297744000001
 30
0.0
 42
-0.20286567
  0
VERTEX
  5
1360
  8
WHITE
 10
906.55941122499996
 20
252.566461965
 30
0.0
 42
-0.23786895
  0
VERTEX
  5
1361
  8
WHITE
 10
906.87019950999991
 20
252.58471063499999
 30
0.0
  0
VERTEX
  5
1362
  8
WHITE
 10
922.04132513000002
 20
246.01956031500001
 30
0.0
 42
0.4142132800000001
  0
VERTEX
  5
1363
  8
WHITE
 10
922.49590617499985
 20
246.19954100499999
 30
0.0
  0
VERTEX
  5
1364
  8
WHITE
 10
923.42268187499997
 20
248.34118558500001
 30
0.0
 42
0.41421357
  0
VERTEX
  5
1365
  8
WHITE
 10
923.24270088000003
 20
248.79576675999999
 30
0.0
  0
VERTEX
  5
1366
  8
WHITE
 10
908.63593651999986
 20
255.11669537
 30
0.0
 42
-0.25562441
  0
VERTEX
  5
1367
  8
WHITE
 10
908.08512696000003
 20
265.66258612000001
 30
0.0
 42
-0.25562441
  0
VERTEX
  5
1368
  8
WHITE
 10
916.66811442999995
 20
271.81494531499999
 30
0.0
  0
VERTEX
  5
1369
  8
WHITE
 10
930.47671048999985
 20
269.43270595500002
 30
0.0
 42
0.41421357
  0
VERTEX
  5
136A
  8
WHITE
 10
930.87616704000004
 20
269.71461447500002
 30
0.0
  0
VERTEX
  5
136B
  8
WHITE
 10
931.27289049000001
 20
272.01421503
 30
0.0
 42
0.41421356
  0
VERTEX
  5
136C
  8
WHITE
 10
930.99098197499995
 20
272.41367158000003
 30
0.0
  0
VERTEX
  5
136D
  8
WHITE
 10
917.72171501499986
 20
274.70286614499997
 30
0.0
 42
-0.26532092
  0
VERTEX
  5
136E
  8
WHITE
 10
917.45725193500004
 20
274.92092715000001
 30
0.0
 42
-0.27740366
  0
VERTEX
  5
136F
  8
WHITE
 10
921.11729002499999
 20
295.19296811499999
 30
0.0
 42
-0.24736204
  0
VERTEX
  5
1370
  8
WHITE
 10
921.41828445999988
 20
295.30832523499998
 30
0.0
  0
VERTEX
  5
1371
  8
WHITE
 10
936.3737734
 20
293.520144845
 30
0.0
 42
0.41421357
  0
VERTEX
  5
1372
  8
WHITE
 10
936.75808759500001
 20
293.82237130499999
 30
0.0
  0
VERTEX
  5
1373
  8
WHITE
 10
937.03513174499994
 20
296.13943875500001
 30
0.0
 42
0.4142135800000001
  0
VERTEX
  5
1374
  8
WHITE
 10
936.73290527499989
 20
296.52375122500001
 30
0.0
  0
VERTEX
  5
1375
  8
WHITE
 10
922.21293901499996
 20
298.25985740499999
 30
0.0
 42
-0.2322048
  0
VERTEX
  5
1376
  8
WHITE
 10
921.95730931000014
 20
298.42563496000002
 30
0.0
 42
-0.37759909
  0
VERTEX
  5
1377
  8
WHITE
 10
924.89602654500004
 20
314.30933807999997
 30
0.0
 42
-0.15844546
  0
VERTEX
  5
1378
  8
WHITE
 10
925.09670116500013
 20
314.38292618999998
 30
0.0
  0
VERTEX
  5
1379
  8
WHITE
 10
939.78666828999997
 20
314.929630745
 30
0.0
 42
0.41421351
  0
VERTEX
  5
137A
  8
WHITE
 10
940.11928629500005
 20
315.28796368500002
 30
0.0
  0
VERTEX
  5
137B
  8
WHITE
 10
940.03250052999999
 20
317.61992054500001
 30
0.0
 42
0.41421342
  0
VERTEX
  5
137C
  8
WHITE
 10
939.67416760499998
 20
317.95253854999999
 30
0.0
  0
VERTEX
  5
137D
  8
WHITE
 10
925.82528560000003
 20
317.43713510499998
 30
0.0
 42
-0.14624066
  0
VERTEX
  5
137E
  8
WHITE
 10
925.63360418000002
 20
317.48673819499999
 30
0.0
 42
-0.27910988
  0
VERTEX
  5
137F
  8
WHITE
 10
920.24966744999983
 20
327.75840642499998
 30
0.0
 42
-0.27910988
  0
VERTEX
  5
1380
  8
WHITE
 10
926.85473501499985
 20
337.29082586999999
 30
0.0
  0
VERTEX
  5
1381
  8
WHITE
 10
937.08624732999999
 20
338.32287707
 30
0.0
 42
0.4142134000000001
  0
VERTEX
  5
1382
  8
WHITE
 10
937.39552027499997
 20
338.701541475
 30
0.0
  0
VERTEX
  5
1383
  8
WHITE
 10
937.16132091500003
 20
341.02333087
 30
0.0
 42
0.4142135500000001
  0
VERTEX
  5
1384
  8
WHITE
 10
936.78265632499995
 20
341.33260380000002
 30
0.0
  0
VERTEX
  5
1385
  8
WHITE
 10
926.55114233500001
 20
340.30054938500001
 30
0.0
 42
-0.28122844
  0
VERTEX
  5
1386
  8
WHITE
 10
920.58853850000003
 20
349.89093013000002
 30
0.0
 42
-0.28122844
  0
VERTEX
  5
1387
  8
WHITE
 10
926.39795296
 20
359.57487307500003
 30
0.0
  0
VERTEX
  5
1388
  8
WHITE
 10
934.23262136000005
 20
362.26327675499999
 30
0.0
 42
0.41421345
  0
VERTEX
  5
1389
  8
WHITE
 10
934.44741306000003
 20
362.70248264499998
 30
0.0
  0
VERTEX
  5
138A
  8
WHITE
 10
933.69001587499986
 20
364.90972134499998
 30
0.0
 42
0.41421346
  0
VERTEX
  5
138B
  8
WHITE
 10
933.25080998500005
 20
365.12451304500001
 30
0.0
  0
VERTEX
  5
138C
  8
WHITE
 10
923.75879567499987
 20
361.86740624499998
 30
0.0
 42
-0.31724901
  0
VERTEX
  5
138D
  8
WHITE
 10
914.10934806
 20
367.30243022000002
 30
0.0
 42
-0.31724901
  0
VERTEX
  5
138E
  8
WHITE
 10
915.99373303000004
 20
378.21574390000001
 30
0.0
  0
VERTEX
  5
138F
  8
WHITE
 10
927.19318016
 20
384.14335412999998
 30
0.0
 42
0.41421356
  0
VERTEX
  5
1390
  8
WHITE
 10
927.33701187999998
 20
384.61063354999999
 30
0.0
  0
VERTEX
  5
1391
  8
WHITE
 10
926.24537851499986
 20
386.67313051500003
 30
0.0
 42
0.41421335
  0
VERTEX
  5
1392
  8
WHITE
 10
925.77810082500014
 20
386.81696223500001
 30
0.0
  0
VERTEX
  5
1393
  8
WHITE
 10
916.27155903000005
 20
381.78536786500001
 30
0.0
 42
-0.3369768
  0
VERTEX
  5
1394
  8
WHITE
 10
904.50971960499987
 20
386.38515291499999
 30
0.0
 42
-0.3369768
  0
VERTEX
  5
1395
  8
WHITE
 10
905.79691264500002
 20
398.94867212999998
 30
0.0
  0
VERTEX
  5
1396
  8
WHITE
 10
915.29484912999999
 20
404.47906874499989
 30
0.0
 42
0.4142130800000001
  0
VERTEX
  5
1397
  8
WHITE
 10
915.41964772999995
 20
404.95178696999989
 30
0.0
  0
VERTEX
  5
1398
  8
WHITE
 10
914.24542477499995
 20
406.96840693000001
 30
0.0
 42
0.41421357
  0
VERTEX
  5
1399
  8
WHITE
 10
913.77270627500002
 20
407.09320536999991
 30
0.0
  0
VERTEX
  5
139A
  8
WHITE
 10
902.93216672000005
 20
400.78104577499988
 30
0.0
 42
-0.33057936
  0
VERTEX
  5
139B
  8
WHITE
 10
891.15088004500001
 20
406.02584736
 30
0.0
 42
-0.33057936
  0
VERTEX
  5
139C
  8
WHITE
 10
892.76025091500003
 20
418.821025545
 30
0.0
  0
VERTEX
  5
139D
  8
WHITE
 10
900.029025875
 20
423.16646950000001
 30
0.0
 42
0.41421356
  0
VERTEX
  5
139E
  8
WHITE
 10
900.14836508500002
 20
423.64059464000002
 30
0.0
  0
VERTEX
  5
139F
  8
WHITE
 10
898.95095908999986
 20
425.64353655500003
 30
0.0
 42
0.4142131700000001
  0
VERTEX
  5
13A0
  8
WHITE
 10
898.47683396499986
 20
425.76287578
 30
0.0
  0
VERTEX
  5
13A1
  8
WHITE
 10
889.78530761499985
 20
420.56687784500002
 30
0.0
 42
-0.28224993
  0
VERTEX
  5
13A2
  8
WHITE
 10
877.26440800499995
 20
421.90631760000002
 30
0.0
 42
-0.28224993
  0
VERTEX
  5
13A3
  8
WHITE
 10
872.78311212999995
 20
433.67428280000001
 30
0.0
 42
-0.21373944
  0
VERTEX
  5
13A4
  8
WHITE
 10
872.94445328999996
 20
433.90637023999989
 30
0.0
  0
VERTEX
  5
13A5
  8
WHITE
 10
884.43091241499985
 20
440.82568485500002
 30
0.0
 42
0.4142134900000001
  0
VERTEX
  5
13A6
  8
WHITE
 10
884.54865886000005
 20
441.30020865500001
 30
0.0
  0
VERTEX
  5
13A7
  8
WHITE
 10
883.34453811499986
 20
443.29912018499999
 30
0.0
 42
0.41421324
  0
VERTEX
  5
13A8
  8
WHITE
 10
882.87001432
 20
443.41686663000002
 30
0.0
  0
VERTEX
  5
13A9
  8
WHITE
 10
871.252060185
 20
436.41834144000001
 30
0.0
 42
-0.32475251
  0
VERTEX
  5
13AA
  8
WHITE
 10
861.91905301500003
 20
439.31743676999992
 30
0.0
 42
-0.32475251
  0
VERTEX
  5
13AB
  8
WHITE
 10
861.78628744499986
 20
449.08944525999999
 30
0.0
 42
-0.10259606
  0
VERTEX
  5
13AC
  8
WHITE
 10
861.88883539999995
 20
449.18533976999993
 30
0.0
  0
VERTEX
  5
13AD
  8
WHITE
 10
872.18170558999998
 20
455.45936435499988
 30
0.0
 42
0.41421344
  0
VERTEX
  5
13AE
  8
WHITE
 10
872.29696472499995
 20
455.93449831999988
 30
0.0
  0
VERTEX
  5
13AF
  8
WHITE
 10
871.0823894749999
 20
457.92707465500001
 30
0.0
 42
0.4142133000000001
  0
VERTEX
  5
13B0
  8
WHITE
 10
870.60725550999996
 20
458.04233379499999
 30
0.0
  0
VERTEX
  5
13B1
  8
WHITE
 10
862.26483944499989
 20
452.9572105449999
 30
0.0
 42
-0.27228763
  0
VERTEX
  5
13B2
  8
WHITE
 10
847.08222133999993
 20
455.33601408499987
 30
0.0
 42
-0.27228763
  0
VERTEX
  5
13B3
  8
WHITE
 10
841.7836264099999
 20
469.76152998999987
 30
0.0
 42
-0.21385834
  0
VERTEX
  5
13B4
  8
WHITE
 10
841.94355148999989
 20
469.99476938499993
 30
0.0
  0
VERTEX
  5
13B5
  8
WHITE
 10
852.95680554499995
 20
476.72254742999991
 30
0.0
 42
0.41421322
  0
VERTEX
  5
13B6
  8
WHITE
 10
853.07160520000002
 20
477.19779239000002
 30
0.0
  0
VERTEX
  5
13B7
  8
WHITE
 10
851.85509881500002
 20
479.18919119999993
 30
0.0
 42
0.4142134000000001
  0
VERTEX
  5
13B8
  8
WHITE
 10
851.37985350999986
 20
479.30398891999999
 30
0.0
  0
VERTEX
  5
13B9
  8
WHITE
 10
841.02476218999993
 20
472.978269845
 30
0.0
 42
-0.15242189
  0
VERTEX
  5
13BA
  8
WHITE
 10
840.82496545000004
 20
472.92813233999999
 30
0.0
 42
-0.25999618
  0
VERTEX
  5
13BB
  8
WHITE
 10
830.45487503000004
 20
479.50762113500002
 30
0.0
 42
-0.25999618
  0
VERTEX
  5
13BC
  8
WHITE
 10
830.60274072499988
 20
491.78795414500001
 30
0.0
 42
-0.14267836
  0
VERTEX
  5
13BD
  8
WHITE
 10
830.74201970000001
 20
491.92208861499989
 30
0.0
  0
VERTEX
  5
13BE
  8
WHITE
 10
839.17951909999988
 20
496.34846394499988
 30
0.0
 42
0.41421336
  0
VERTEX
  5
13BF
  8
WHITE
 10
839.32505833499988
 20
496.81521306000002
 30
0.0
  0
VERTEX
  5
13C0
  8
WHITE
 10
838.2409705
 20
498.88168710000002
 30
0.0
 42
0.4142133700000001
  0
VERTEX
  5
13C1
  8
WHITE
 10
837.77422115499996
 20
499.02722448499992
 30
0.0
  0
VERTEX
  5
13C2
  8
WHITE
 10
827.82398542999999
 20
493.80725824500001
 30
0.0
 42
-0.16227953
  0
VERTEX
  5
13C3
  8
WHITE
 10
827.60817603500016
 20
493.77212342000001
 30
0.0
 42
-0.22162026
  0
VERTEX
  5
13C4
  8
WHITE
 10
818.75745019999999
 20
499.78263457000003
 30
0.0
 42
-0.22162026
  0
VERTEX
  5
13C5
  8
WHITE
 10
817.66961226499996
 20
510.425858355
 30
0.0
 42
-0.22983519
  0
VERTEX
  5
13C6
  8
WHITE
 10
817.88323768999999
 20
510.63915916500002
 30
0.0
  0
VERTEX
  5
13C7
  8
WHITE
 10
828.19906641499995
 20
514.20505276999995
 30
0.0
 42
0.41421356
  0
VERTEX
  5
13C8
  8
WHITE
 10
828.41286363500012
 20
514.64474395499997
 30
0.0
  0
VERTEX
  5
13C9
  8
WHITE
 10
827.65047661499989
 20
516.85026315499999
 30
0.0
 42
0.41421357
  0
VERTEX
  5
13CA
  8
WHITE
 10
827.21078544500006
 20
517.06406211000001
 30
0.0
  0
VERTEX
  5
13CB
  8
WHITE
 10
817.38763309499996
 20
513.66847076500005
 30
0.0
 42
-0.20843969
  0
VERTEX
  5
13CC
  8
WHITE
 10
817.11223641499987
 20
513.69004540499998
 30
0.0
 42
-0.21307423
  0
VERTEX
  5
13CD
  8
WHITE
 10
811.256912145
 20
521.20732565000003
 30
0.0
 42
-0.21307423
  0
VERTEX
  5
13CE
  8
WHITE
 10
812.94394219499986
 20
530.58539940499986
 30
0.0
 42
-0.2459224
  0
VERTEX
  5
13CF
  8
WHITE
 10
800.93716963999998
 20
546.15047515499987
 30
0.0
 42
-0.20640913
  0
VERTEX
  5
13D0
  8
WHITE
 10
807.67468693499995
 20
564.36457678500005
 30
0.0
 42
-0.20640913
  0
VERTEX
  5
13D1
  8
WHITE
 10
825.54454406499985
 20
571.96825004000004
 30
0.0
 42
-0.22106459
  0
VERTEX
  5
13D2
  8
WHITE
 10
825.80824858000005
 20
571.84412382999994
 30
0.0
 42
-0.22106459
  0
VERTEX
  5
13D3
  8
WHITE
 10
825.88334421499985
 20
571.56250645499995
 30
0.0
  0
VERTEX
  5
13D4
  8
WHITE
 10
823.00448628999993
 20
555.235691245
 30
0.0
  0
VERTEX
  5
13D5
  8
WHITE
 10
825.98353049000013
 20
554.71040604500001
 30
0.0
  0
VERTEX
  5
13D6
  8
WHITE
 10
828.85954928499984
 20
571.021124945
 30
0.0
 42
-0.24801837
  0
VERTEX
  5
13D7
  8
WHITE
 10
829.05784091500004
 20
571.27621999500002
 30
0.0
 42
-0.24801837
  0
VERTEX
  5
13D8
  8
WHITE
 10
829.38031092000006
 20
571.25606676500001
 30
0.0
 42
-0.35521254
  0
VERTEX
  5
13D9
  8
WHITE
 10
840.68849227500004
 20
539.24079307
 30
0.0
  0
VERTEX
  5
13DA
  8
WHITE
 10
842.47385299999985
 20
530.75246308500004
 30
0.0
 42
-0.41071906
  0
VERTEX
  5
13DB
  8
WHITE
 10
845.57138515999998
 20
513.72763121499997
 30
0.0
 42
-0.2051285
  0
VERTEX
  5
13DC
  8
WHITE
 10
856.57700393000005
 20
508.16908873499989
 30
0.0
 42
-0.2051285
  0
VERTEX
  5
13DD
  8
WHITE
 10
860.14778751499989
 20
496.36779458500001
 30
0.0
 42
-0.33411151
  0
VERTEX
  5
13DE
  8
WHITE
 10
873.98656222499994
 20
478.5891811699999
 30
0.0
 42
-0.21996802
  0
VERTEX
  5
13DF
  8
WHITE
 10
884.99508662999995
 20
474.70713073500002
 30
0.0
 42
-0.21996802
  0
VERTEX
  5
13E0
  8
WHITE
 10
889.16928448999988
 20
463.80603010499999
 30
0.0
 42
0.34669836
  0
VERTEX
  5
13E1
  8
WHITE
 10
890.37779284999999
 20
462.03998849999999
 30
0.0
 42
-0.3290264
  0
VERTEX
  5
13E2
  8
WHITE
 10
903.07574061000014
 20
444.691420145
 30
0.0
 42
0.25222228
  0
VERTEX
  5
13E3
  8
WHITE
 10
905.59375683999986
 20
439.63778828
 30
0.0
 42
0.25222228
  0
VERTEX
  5
13E4
  8
WHITE
 10
911.19917525999995
 20
438.96037626999998
 30
0.0
 42
-0.22626643
  0
VERTEX
  5
13E5
  8
WHITE
 10
917.79944652500001
 20
435.67240893500002
 30
0.0
 42
-0.22626643
  0
VERTEX
  5
13E6
  8
WHITE
 10
919.39818792000005
 20
428.47391354500002
 30
0.0
 42
0.30371785
  0
VERTEX
  5
13E7
  8
WHITE
 10
920.71820664999996
 20
423.67614492000001
 30
0.0
 42
0.30371785
  0
VERTEX
  5
13E8
  8
WHITE
 10
925.65675100500005
 20
423.06636598
 30
0.0
 42
-0.31310316
  0
VERTEX
  5
13E9
  8
WHITE
 10
933.73211835999996
 20
406.72396013000002
 30
0.0
 42
0.27420202
  0
VERTEX
  5
13EA
  8
WHITE
 10
935.88213330500002
 20
402.87763637500001
 30
0.0
 42
0.27420202
  0
VERTEX
  5
13EB
  8
WHITE
 10
940.28838465999991
 20
402.91910601500001
 30
0.0
 42
-0.20462749
  0
VERTEX
  5
13EC
  8
WHITE
 10
950.00829514999987
 20
396.04385895500002
 30
0.0
 42
-0.20462749
  0
VERTEX
  5
13ED
  8
WHITE
 10
951.76154790500004
 20
384.26795792000001
 30
0.0
 42
0.36534615
  0
VERTEX
  5
13EE
  8
WHITE
 10
949.20174315999998
 20
379.87596335500001
 30
0.0
 42
0.36534615
  0
VERTEX
  5
13EF
  8
WHITE
 10
953.09841283499986
 20
376.61127621999998
 30
0.0
 42
-0.30323601
  0
VERTEX
  5
13F0
  8
WHITE
 10
960.87816925499999
 20
372.874882765
 30
0.0
 42
-0.30323601
  0
VERTEX
  5
13F1
  8
WHITE
 10
960.40686679999999
 20
364.25727688500001
 30
0.0
 42
0.31324356
  0
VERTEX
  5
13F2
  8
WHITE
 10
959.95266455499996
 20
357.34917058500002
 30
0.0
 42
0.31324356
  0
VERTEX
  5
13F3
  8
WHITE
 10
966.26776668000002
 20
354.51231946500002
 30
0.0
 42
-0.2089163
  0
VERTEX
  5
13F4
  8
WHITE
 10
972.56835284500005
 20
346.014126455
 30
0.0
 42
-0.2089163
  0
VERTEX
  5
13F5
  8
WHITE
 10
970.61363747500002
 20
335.61721545500001
 30
0.0
 42
0.26457967
  0
VERTEX
  5
13F6
  8
WHITE
 10
968.15688990000001
 20
331.69823471000001
 30
0.0
 42
0.26457967
  0
VERTEX
  5
13F7
  8
WHITE
 10
970.27084296500004
 20
327.58420726999998
 30
0.0
 42
-0.25873717
  0
VERTEX
  5
13F8
  8
WHITE
 10
977.19411644499996
 20
319.06429252999999
 30
0.0
 42
-0.25873717
  0
VERTEX
  5
13F9
  8
WHITE
 10
973.63293847499995
 20
308.67975195000002
 30
0.0
 42
0.39843947
  0
VERTEX
  5
13FA
  8
WHITE
 10
970.17620842500014
 20
304.3816084
 30
0.0
 42
0.39843947
  0
VERTEX
  5
13FB
  8
WHITE
 10
974.2809436199999
 20
300.69729316000002
 30
0.0
 42
-0.16316415
  0
VERTEX
  5
13FC
  8
WHITE
 10
995.24969675499995
 20
284.965476325
 30
0.0
  0
VERTEX
  5
13FD
  8
WHITE
 10
995.63756308500012
 20
284.39273857500001
 30
0.0
  0
VERTEX
  5
13FE
  8
WHITE
 10
996.01576742500004
 20
283.81357513500001
 30
0.0
  0
SEQEND
  5
13FF
  8
WHITE
  0
POLYLINE
  5
925
  8
WHITE
 66
     1
 10
0.0
 20
0.0
 30
0.0
 70
     1
  0
VERTEX
  5
1400
  8
WHITE
 10
835.23884494000015
 20
303.08576787499999
 30
0.0
 42
-0.07711579
  0
VERTEX
  5
1401
  8
WHITE
 10
828.76217672999985
 20
308.40126328000002
 30
0.0
 42
0.28458813
  0
VERTEX
  5
1402
  8
WHITE
 10
816.01150373999997
 20
312.11870198499997
 30
0.0
 42
-0.20428915
  0
VERTEX
  5
1403
  8
WHITE
 10
814.93622753999989
 20
312.26168946000001
 30
0.0
 42
-0.20428915
  0
VERTEX
  5
1404
  8
WHITE
 10
814.29494287999989
 20
313.13657137500002
 30
0.0
 42
-0.18854597
  0
VERTEX
  5
1405
  8
WHITE
 10
816.42699303999996
 20
327.92124139999999
 30
0.0
 42
-0.30678258
  0
VERTEX
  5
1406
  8
WHITE
 10
817.81707454499997
 20
328.60913535499998
 30
0.0
  0
VERTEX
  5
1407
  8
WHITE
 10
830.98139919000005
 20
326.81020761500002
 30
0.0
 42
0.24131538
  0
VERTEX
  5
1408
  8
WHITE
 10
836.93187334000004
 20
328.90016735500001
 30
0.0
 42
0.24131538
  0
VERTEX
  5
1409
  8
WHITE
 10
838.71038999999985
 20
334.95103057
 30
0.0
  0
VERTEX
  5
140A
  8
WHITE
 10
837.18366194999987
 20
342.98915774
 30
0.0
 42
-0.32337015
  0
VERTEX
  5
140B
  8
WHITE
 10
854.46937641500006
 20
342.98915736999999
 30
0.0
  0
VERTEX
  5
140C
  8
WHITE
 10
852.94264854499988
 20
334.95103057
 30
0.0
 42
0.24131538
  0
VERTEX
  5
140D
  8
WHITE
 10
854.72116520999987
 20
328.90016735500001
 30
0.0
 42
0.24131538
  0
VERTEX
  5
140E
  8
WHITE
 10
860.67163935999986
 20
326.81020761500002
 30
0.0
  0
VERTEX
  5
140F
  8
WHITE
 10
873.83596409499989
 20
328.609134735
 30
0.0
 42
-0.30678241
  0
VERTEX
  5
1410
  8
WHITE
 10
875.22604483500004
 20
327.92124199
 30
0.0
 42
-0.18854597
  0
VERTEX
  5
1411
  8
WHITE
 10
877.35809217499991
 20
313.136571785
 30
0.0
 42
-0.20428912
  0
VERTEX
  5
1412
  8
WHITE
 10
876.71680907999996
 20
312.26169233500002
 30
0.0
 42
-0.20428912
  0
VERTEX
  5
1413
  8
WHITE
 10
875.64153525500001
 20
312.11870356999998
 30
0.0
 42
0.28458813
  0
VERTEX
  5
1414
  8
WHITE
 10
862.89086181499988
 20
308.40126328000002
 30
0.0
 42
-0.16652939
  0
VERTEX
  5
1415
  8
WHITE
 10
847.44450455499998
 20
299.73804646500002
 30
0.0
 42
-0.22255752
  0
VERTEX
  5
1416
  8
WHITE
 10
847.16088496999998
 20
299.81254431000002
 30
0.0
 42
-0.22255752
  0
VERTEX
  5
1417
  8
WHITE
 10
847.03651927500005
 20
300.0781063
 30
0.0
  0
VERTEX
  5
1418
  8
WHITE
 10
847.03651927500005
 20
313.07396437
 30
0.0
 42
0.4142135500000001
  0
VERTEX
  5
1419
  8
WHITE
 10
846.69080498999983
 20
313.41967865499998
 30
0.0
  0
VERTEX
  5
141A
  8
WHITE
 10
844.35723353499986
 20
313.41967865499998
 30
0.0
 42
0.41421354
  0
VERTEX
  5
141B
  8
WHITE
 10
844.01151927499996
 20
313.07396437
 30
0.0
  0
VERTEX
  5
141C
  8
WHITE
 10
844.01151927499996
 20
300.196051915
 30
0.0
 42
-0.22555687
  0
VERTEX
  5
141D
  8
WHITE
 10
843.88410544500005
 20
299.927978645
 30
0.0
 42
-0.22555687
  0
VERTEX
  5
141E
  8
WHITE
 10
843.59578115999989
 20
299.85750278500001
 30
0.0
 42
-0.06978888
  0
VERTEX
  5
141F
  8
WHITE
 10
836.44803567500003
 20
302.41258332000001
 30
0.0
  0
VERTEX
  5
1420
  8
WHITE
 10
835.83917756999995
 20
302.74151875500002
 30
0.0
  0
VERTEX
  5
1421
  8
WHITE
 10
835.23884494000015
 20
303.08576787499999
 30
0.0
  0
SEQEND
  5
1422
  8
WHITE
  0
POLYLINE
  5
949
  8
WHITE
 66
     1
 10
0.0
 20
0.0
 30
0.0
 70
     1
  0
VERTEX
  5
1423
  8
WHITE
 10
939.86444259999996
 20
465.85712732000002
 30
0.0
 42
0.11548573
  0
VERTEX
  5
1424
  8
WHITE
 10
910.61167471500005
 20
487.10899389499991
 30
0.0
 42
-0.28550927
  0
VERTEX
  5
1425
  8
WHITE
 10
904.09415719499998
 20
492.72385729500002
 30
0.0
 42
-0.20899015
  0
VERTEX
  5
1426
  8
WHITE
 10
894.28477740000005
 20
499.62031089499988
 30
0.0
 42
-0.20899015
  0
VERTEX
  5
1427
  8
WHITE
 10
892.68362111999988
 20
511.50396898999992
 30
0.0
 42
-0.22758605
  0
VERTEX
  5
1428
  8
WHITE
 10
886.42087749500001
 20
518.77828898500002
 30
0.0
 42
-0.22758605
  0
VERTEX
  5
1429
  8
WHITE
 10
888.17982918999985
 20
528.21459006500004
 30
0.0
 42
0.22498089
  0
VERTEX
  5
142A
  8
WHITE
 10
875.520505555
 20
579.47596513999986
 30
0.0
 42
-0.2310023
  0
VERTEX
  5
142B
  8
WHITE
 10
875.45117431999995
 20
579.77119412499985
 30
0.0
 42
-0.2310023
  0
VERTEX
  5
142C
  8
WHITE
 10
875.64125373499996
 20
580.00749222499985
 30
0.0
  0
VERTEX
  5
142D
  8
WHITE
 10
879.85677189000012
 20
581.98863394499995
 30
0.0
 42
0.30722233
  0
VERTEX
  5
142E
  8
WHITE
 10
880.21622958
 20
582.71083828500002
 30
0.0
 42
0.30722233
  0
VERTEX
  5
142F
  8
WHITE
 10
879.67798369000002
 20
583.31173744
 30
0.0
  0
VERTEX
  5
1430
  8
WHITE
 10
876.23307870500003
 20
583.29102196500003
 30
0.0
 42
-0.22830188
  0
VERTEX
  5
1431
  8
WHITE
 10
875.96196239999995
 20
583.41961907999985
 30
0.0
 42
-0.22830188
  0
VERTEX
  5
1432
  8
WHITE
 10
875.89353024000013
 20
583.71178054500001
 30
0.0
 42
0.27027334
  0
VERTEX
  5
1433
  8
WHITE
 10
872.16833221000002
 20
595.37710967500004
 30
0.0
 42
0.27027334
  0
VERTEX
  5
1434
  8
WHITE
 10
860.18111622499987
 20
597.87983867000003
 30
0.0
 42
-0.21129722
  0
VERTEX
  5
1435
  8
WHITE
 10
859.90265457999988
 20
597.90619286499998
 30
0.0
 42
-0.21129722
  0
VERTEX
  5
1436
  8
WHITE
 10
859.73483166999995
 20
598.12995815500005
 30
0.0
 42
0.39626577
  0
VERTEX
  5
1437
  8
WHITE
 10
849.34678331999999
 20
605.07329394500005
 30
0.0
 42
-0.37650787
  0
VERTEX
  5
1438
  8
WHITE
 10
848.95917297499989
 20
605.31351527000004
 30
0.0
  0
VERTEX
  5
1439
  8
WHITE
 10
847.91350479999994
 20
608.74488340000005
 30
0.0
 42
0.27509845
  0
VERTEX
  5
143A
  8
WHITE
 10
847.65188333499987
 20
608.9828485349999
 30
0.0
 42
0.27509845
  0
VERTEX
  5
143B
  8
WHITE
 10
847.31797270499999
 20
608.86632720499995
 30
0.0
  0
VERTEX
  5
143C
  8
WHITE
 10
844.97335172999999
 20
606.07211613000004
 30
0.0
 42
-0.23250562
  0
VERTEX
  5
143D
  8
WHITE
 10
843.57812488499997
 20
605.45610930500004
 30
0.0
  0
VERTEX
  5
143E
  8
WHITE
 10
833.31798178999986
 20
605.87828622999984
 30
0.0
 42
-0.28590439
  0
VERTEX
  5
143F
  8
WHITE
 10
831.80774181499999
 20
606.90723642
 30
0.0
 42
-0.28590439
  0
VERTEX
  5
1440
  8
WHITE
 10
832.06488581500014
 20
608.71650107999994
 30
0.0
  0
VERTEX
  5
1441
  8
WHITE
 10
837.73285174499995
 20
615.47131834499999
 30
0.0
 42
-0.11632483
  0
VERTEX
  5
1442
  8
WHITE
 10
838.36886579499992
 20
615.94590293999988
 30
0.0
  0
VERTEX
  5
1443
  8
WHITE
 10
843.0650434449999
 20
617.98392482999986
 30
0.0
  0
VERTEX
  5
1444
  8
WHITE
 10
845.20720497499985
 20
624.37890619999985
 30
0.0
  0
VERTEX
  5
1445
  8
WHITE
 10
874.78661779000004
 20
659.63027871500003
 30
0.0
 42
-0.29173357
  0
VERTEX
  5
1446
  8
WHITE
 10
878.50636888500003
 20
657.14514806499994
 30
0.0
 42
-0.29173357
  0
VERTEX
  5
1447
  8
WHITE
 10
877.82186954500003
 20
652.72430150000002
 30
0.0
 42
-0.21146783
  0
VERTEX
  5
1448
  8
WHITE
 10
874.58175348500015
 20
638.22464133499989
 30
0.0
 42
0.30159353
  0
VERTEX
  5
1449
  8
WHITE
 10
876.41472885999997
 20
622.66309809999996
 30
0.0
 42
-0.21870845
  0
VERTEX
  5
144A
  8
WHITE
 10
876.80307587499988
 20
621.27314907000004
 30
0.0
  0
VERTEX
  5
144B
  8
WHITE
 10
876.31930577499986
 20
618.24048804500001
 30
0.0
  0
VERTEX
  5
144C
  8
WHITE
 10
878.04285915999992
 20
619.07351427000003
 30
0.0
 42
-0.4129998500000001
  0
VERTEX
  5
144D
  8
WHITE
 10
880.34825473499984
 20
618.27583428499986
 30
0.0
 42
0.13141332
  0
VERTEX
  5
144E
  8
WHITE
 10
900.12808764500005
 20
595.52650795500006
 30
0.0
 42
-0.36397246
  0
VERTEX
  5
144F
  8
WHITE
 10
906.79463901500003
 20
592.39823061000004
 30
0.0
 42
-0.36397246
  0
VERTEX
  5
1450
  8
WHITE
 10
904.87146583499998
 20
585.28975460000004
 30
0.0
 42
-0.22864271
  0
VERTEX
  5
1451
  8
WHITE
 10
908.38247095500003
 20
581.83642471499991
 30
0.0
 42
-0.22864271
  0
VERTEX
  5
1452
  8
WHITE
 10
907.86418936999996
 20
576.93907722999995
 30
0.0
 42
0.19628165
  0
VERTEX
  5
1453
  8
WHITE
 10
917.63451153500012
 20
524.52757711000004
 30
0.0
 42
-0.22868367
  0
VERTEX
  5
1454
  8
WHITE
 10
917.19450497999992
 20
519.18291697999996
 30
0.0
 42
0.17638365
  0
VERTEX
  5
1455
  8
WHITE
 10
943.20968214000004
 20
498.89640381999988
 30
0.0
 42
-0.39237625
  0
VERTEX
  5
1456
  8
WHITE
 10
971.84608487000014
 20
492.80316221499987
 30
0.0
 42
-0.26477
  0
VERTEX
  5
1457
  8
WHITE
 10
989.77990184499993
 20
480.46011919999989
 30
0.0
 42
-0.26477
  0
VERTEX
  5
1458
  8
WHITE
 10
988.31524061499988
 20
458.73853356500001
 30
0.0
 42
-0.21365731
  0
VERTEX
  5
1459
  8
WHITE
 10
988.07656782499998
 20
458.58728933499992
 30
0.0
 42
-0.21365731
  0
VERTEX
  5
145A
  8
WHITE
 10
987.80479138999988
 20
458.66460095999992
 30
0.0
  0
VERTEX
  5
145B
  8
WHITE
 10
967.07972214499989
 20
476.05499907000001
 30
0.0
 42
0.41421356
  0
VERTEX
  5
145C
  8
WHITE
 10
966.59266794999996
 20
476.01238895499989
 30
0.0
  0
VERTEX
  5
145D
  8
WHITE
 10
965.09267742999998
 20
474.22476863000003
 30
0.0
 42
0.41421315
  0
VERTEX
  5
145E
  8
WHITE
 10
965.13528911499986
 20
473.73771629499993
 30
0.0
  0
VERTEX
  5
145F
  8
WHITE
 10
985.87593992999996
 20
456.33424275499999
 30
0.0
 42
-0.39715412
  0
VERTEX
  5
1460
  8
WHITE
 10
985.93111089000001
 20
455.86307965999998
 30
0.0
 42
0.32689396
  0
VERTEX
  5
1461
  8
WHITE
 10
985.74795377999988
 20
431.92126482499992
 30
0.0
 42
-0.26163736
  0
VERTEX
  5
1462
  8
WHITE
 10
993.32882648999987
 20
396.200717285
 30
0.0
 42
-0.22026597
  0
VERTEX
  5
1463
  8
WHITE
 10
972.45815279999988
 20
390.08252678500003
 30
0.0
 42
0.06887113
  0
VERTEX
  5
1464
  8
WHITE
 10
959.01503365999997
 20
398.94500642999998
 30
0.0
 42
-0.33494029
  0
VERTEX
  5
1465
  8
WHITE
 10
958.05519492500014
 20
400.79286248999989
 30
0.0
 42
0.21901473
  0
VERTEX
  5
1466
  8
WHITE
 10
940.75939701000004
 20
464.80284541999998
 30
0.0
  0
VERTEX
  5
1467
  8
WHITE
 10
939.86444259999996
 20
465.85712732000002
 30
0.0
  0
SEQEND
  5
1468
  8
WHITE
  0
POLYLINE
  5
990
  8
WHITE
 66
     1
 10
0.0
 20
0.0
 30
0.0
 70
     1
  0
VERTEX
  5
1469
  8
WHITE
 10
1002.4432314650001
 20
152.48899485999999
 30
0.0
 42
0.07254828
  0
VERTEX
  5
146A
  8
WHITE
 10
1028.2977941449999
 20
136.66578548999999
 30
0.0
 42
-0.41036097
  0
VERTEX
  5
146B
  8
WHITE
 10
1032.88738023
 20
125.42452657
 30
0.0
  0
VERTEX
  5
146C
  8
WHITE
 10
1017.581766965
 20
88.315013250000007
 30
0.0
 42
-0.35081915
  0
VERTEX
  5
146D
  8
WHITE
 10
1004.73930473
 20
92.942029445000003
 30
0.0
 42
-0.27508289
  0
VERTEX
  5
146E
  8
WHITE
 10
1004.734605815
 20
93.295636845000004
 30
0.0
  0
VERTEX
  5
146F
  8
WHITE
 10
1014.64059579
 20
110.45331757
 30
0.0
 42
0.41421335
  0
VERTEX
  5
1470
  8
WHITE
 10
1014.514055715
 20
110.92557193
 30
0.0
  0
VERTEX
  5
1471
  8
WHITE
 10
1012.49312409
 20
112.09235764500001
 30
0.0
 42
0.41421323
  0
VERTEX
  5
1472
  8
WHITE
 10
1012.02086973
 20
111.96581757
 30
0.0
  0
VERTEX
  5
1473
  8
WHITE
 10
1002.13545847
 20
94.843783325000004
 30
0.0
 42
-0.31717325
  0
VERTEX
  5
1474
  8
WHITE
 10
1001.7737089
 20
94.676595834999986
 30
0.0
 42
0.23786922
  0
VERTEX
  5
1475
  8
WHITE
 10
970.59681814999988
 20
85.518520659999993
 30
0.0
 42
-0.32849355
  0
VERTEX
  5
1476
  8
WHITE
 10
949.82968577500003
 20
90.954311634999996
 30
0.0
 42
-0.38325321
  0
VERTEX
  5
1477
  8
WHITE
 10
949.85368505999998
 20
91.415796400000005
 30
0.0
  0
VERTEX
  5
1478
  8
WHITE
 10
964.60808971500001
 20
106.213487945
 30
0.0
 42
0.41421357
  0
VERTEX
  5
1479
  8
WHITE
 10
964.60737409000001
 20
106.702400545
 30
0.0
  0
VERTEX
  5
147A
  8
WHITE
 10
962.95487362999995
 20
108.350066185
 30
0.0
 42
0.41421335
  0
VERTEX
  5
147B
  8
WHITE
 10
962.46596042500005
 20
108.34935066
 30
0.0
  0
VERTEX
  5
147C
  8
WHITE
 10
947.80751516999999
 20
93.647898859999998
 30
0.0
 42
-0.32556533
  0
VERTEX
  5
147D
  8
WHITE
 10
947.40548152999997
 20
93.584102169999994
 30
0.0
 42
-0.35658783
  0
VERTEX
  5
147E
  8
WHITE
 10
934.22197854499996
 20
123.61855144499999
 30
0.0
  0
VERTEX
  5
147F
  8
WHITE
 10
950.49394274999997
 20
151.802423135
 30
0.0
 42
-0.41421329
  0
VERTEX
  5
1480
  8
WHITE
 10
950.96619708999992
 20
151.92896293000001
 30
0.0
  0
VERTEX
  5
1481
  8
WHITE
 10
978.53357719999985
 20
136.01292860500001
 30
0.0
 42
0.4142130500000001
  0
VERTEX
  5
1482
  8
WHITE
 10
979.00583129500001
 20
136.13946867499999
 30
0.0
  0
VERTEX
  5
1483
  8
WHITE
 10
980.17261702999997
 20
138.16040058499999
 30
0.0
 42
0.41421335
  0
VERTEX
  5
1484
  8
WHITE
 10
980.04607696000005
 20
138.63265494500001
 30
0.0
  0
VERTEX
  5
1485
  8
WHITE
 10
952.47803495499988
 20
154.54907091000001
 30
0.0
 42
-0.41507843
  0
VERTEX
  5
1486
  8
WHITE
 10
952.35200662999989
 20
155.02220865499999
 30
0.0
  0
VERTEX
  5
1487
  8
WHITE
 10
980.29637280999987
 20
203.09489128999999
 30
0.0
 42
-0.20318625
  0
VERTEX
  5
1488
  8
WHITE
 10
981.37586147000013
 20
203.90421885999999
 30
0.0
 42
-0.20392474
  0
VERTEX
  5
1489
  8
WHITE
 10
988.05249550500014
 20
202.827303105
 30
0.0
 42
-0.20392474
  0
VERTEX
  5
148A
  8
WHITE
 10
991.90572885500001
 20
197.26944533
 30
0.0
 42
-0.18285852
  0
VERTEX
  5
148B
  8
WHITE
 10
991.71342093500004
 20
196.06122630499999
 30
0.0
 42
0.3054048
  0
VERTEX
  5
148C
  8
WHITE
 10
994.36237468000002
 20
159.96423378
 30
0.0
 42
0.02288576
  0
VERTEX
  5
148D
  8
WHITE
 10
1001.371293765
 20
153.39320325
 30
0.0
  0
VERTEX
  5
148E
  8
WHITE
 10
1002.4432314650001
 20
152.48899485999999
 30
0.0
  0
SEQEND
  5
148F
  8
WHITE
  0
POLYLINE
  5
9B8
  8
WHITE
 66
     1
 10
0.0
 20
0.0
 30
0.0
 70
     1
  0
VERTEX
  5
1490
  8
WHITE
 10
392.38464514999998
 20
598.21910835000006
 30
0.0
 42
0.08713648
  0
VERTEX
  5
1491
  8
WHITE
 10
371.06930081000002
 20
586.84831718999999
 30
0.0
 42
0.2161957
  0
VERTEX
  5
1492
  8
WHITE
 10
384.30582624499999
 20
587.69947160499987
 30
0.0
 42
0.2161957
  0
VERTEX
  5
1493
  8
WHITE
 10
392.38464514999998
 20
598.21910835000006
 30
0.0
  0
SEQEND
  5
1494
  8
WHITE
  0
POLYLINE
  5
9BE
  8
WHITE
 66
     1
 10
0.0
 20
0.0
 30
0.0
 70
     1
  0
VERTEX
  5
1495
  8
WHITE
 10
676.05887738499985
 20
413.63082193999998
 30
0.0
 42
0.41421356
  0
VERTEX
  5
1496
  8
WHITE
 10
676.61246353000001
 20
412.66009524999993
 30
0.0
 42
0.41421356
  0
VERTEX
  5
1497
  8
WHITE
 10
677.58318893000001
 20
413.21367904499988
 30
0.0
 42
-0.10493841
  0
VERTEX
  5
1498
  8
WHITE
 10
680.30700533000004
 20
417.58685374499993
 30
0.0
 42
-0.21758235
  0
VERTEX
  5
1499
  8
WHITE
 10
680.86403684000004
 20
423.14283706499992
 30
0.0
 42
0.41421356
  0
VERTEX
  5
149A
  8
WHITE
 10
679.30172809999999
 20
425.287025615
 30
0.0
 42
0.41421356
  0
VERTEX
  5
149B
  8
WHITE
 10
677.15753928499987
 20
423.72471518999998
 30
0.0
 42
-0.16928727
  0
VERTEX
  5
149C
  8
WHITE
 10
676.78665984999986
 20
417.89484270499992
 30
0.0
 42
-0.1153285
  0
VERTEX
  5
149D
  8
WHITE
 10
676.05887738499985
 20
413.63082193999998
 30
0.0
  0
SEQEND
  5
149E
  8
WHITE
  0
POLYLINE
  5
9C9
  8
WHITE
 66
     1
 10
0.0
 20
0.0
 30
0.0
 70
     1
  0
VERTEX
  5
149F
  8
WHITE
 10
292.35080960499999
 20
483.83932886999992
 30
0.0
 42
0.41421356
  0
VERTEX
  5
14A0
  8
WHITE
 10
292.15090801999997
 20
482.73987018499992
 30
0.0
 42
0.41421356
  0
VERTEX
  5
14A1
  8
WHITE
 10
293.25036598499997
 20
482.53996884499998
 30
0.0
 42
-0.10493841
  0
VERTEX
  5
14A2
  8
WHITE
 10
298.14795212000001
 20
484.1391796499999
 30
0.0
 42
-0.21758235
  0
VERTEX
  5
14A3
  8
WHITE
 10
302.14597910999998
 20
488.03725816500003
 30
0.0
 42
0.41421356
  0
VERTEX
  5
14A4
  8
WHITE
 10
302.32743927000001
 20
490.68403332999992
 30
0.0
 42
0.41421356
  0
VERTEX
  5
14A5
  8
WHITE
 10
299.68066284000002
 20
490.86549384499989
 30
0.0
 42
-0.16928731
  0
VERTEX
  5
14A6
  8
WHITE
 10
295.64918303000002
 20
486.63794873000001
 30
0.0
 42
-0.1153285
  0
VERTEX
  5
14A7
  8
WHITE
 10
292.35080960499999
 20
483.83932886999992
 30
0.0
  0
SEQEND
  5
14A8
  8
WHITE
  0
POLYLINE
  5
9D4
  8
WHITE
 66
     1
 10
0.0
 20
0.0
 30
0.0
 70
     1
  0
VERTEX
  5
14A9
  8
WHITE
 10
212.994479125
 20
538.49377647999995
 30
0.0
 42
0.1582342
  0
VERTEX
  5
14AA
  8
WHITE
 10
232.582818205
 20
525.92775229999995
 30
0.0
 42
-0.41421356
  0
VERTEX
  5
14AB
  8
WHITE
 10
233.24498016999999
 20
523.87459745499984
 30
0.0
 42
-0.41421356
  0
VERTEX
  5
14AC
  8
WHITE
 10
231.19182488999999
 20
523.21243463500002
 30
0.0
 42
-0.14186104
  0
VERTEX
  5
14AD
  8
WHITE
 10
212.994479125
 20
538.49377647999995
 30
0.0
  0
SEQEND
  5
14AE
  8
WHITE
  0
POLYLINE
  5
9DB
  8
WHITE
 66
     1
 10
0.0
 20
0.0
 30
0.0
 70
     1
  0
VERTEX
  5
14AF
  8
WHITE
 10
895.29630265000003
 20
536.8055051099999
 30
0.0
 42
0.207153
  0
VERTEX
  5
14B0
  8
WHITE
 10
895.5246468549999
 20
536.16477717500004
 30
0.0
 42
0.207153
  0
VERTEX
  5
14B1
  8
WHITE
 10
896.14809519499988
 20
535.89277476999996
 30
0.0
 42
0.207153
  0
VERTEX
  5
14B2
  8
WHITE
 10
896.77309137500015
 20
536.16120151500002
 30
0.0
 42
0.207153
  0
VERTEX
  5
14B3
  8
WHITE
 10
897.0051008449999
 20
536.80061087000001
 30
0.0
 42
0.29201129
  0
VERTEX
  5
14B4
  8
WHITE
 10
891.6441988549999
 20
555.58851458000004
 30
0.0
 42
-0.10539773
  0
VERTEX
  5
14B5
  8
WHITE
 10
895.29630265000003
 20
536.8055051099999
 30
0.0
  0
SEQEND
  5
14B6
  8
WHITE
  0
POLYLINE
  5
9E4
  8
WHITE
 66
     1
 10
0.0
 20
0.0
 30
0.0
 70
     1
  0
VERTEX
  5
14B7
  8
WHITE
 10
695.45656136499986
 20
441.97182135000003
 30
0.0
 42
0.24412196
  0
VERTEX
  5
14B8
  8
WHITE
 10
698.02859372
 20
444.33222476999998
 30
0.0
 42
0.24412196
  0
VERTEX
  5
14B9
  8
WHITE
 10
697.57785254500004
 20
447.79397063499988
 30
0.0
 42
-0.23359689
  0
VERTEX
  5
14BA
  8
WHITE
 10
698.76804388999994
 20
451.72682197500001
 30
0.0
 42
-0.23359689
  0
VERTEX
  5
14BB
  8
WHITE
 10
702.61508474000004
 20
453.17047846499992
 30
0.0
 42
-0.21151363
  0
VERTEX
  5
14BC
  8
WHITE
 10
703.832080905
 20
452.47876503999993
 30
0.0
 42
-0.21151363
  0
VERTEX
  5
14BD
  8
WHITE
 10
704.13782300000003
 20
451.11272371500002
 30
0.0
 42
0.07798306
  0
VERTEX
  5
14BE
  8
WHITE
 10
703.65862635500002
 20
439.44432333499992
 30
0.0
 42
-0.2183865
  0
VERTEX
  5
14BF
  8
WHITE
 10
702.98798894499998
 20
437.38909935499993
 30
0.0
 42
-0.2183865
  0
VERTEX
  5
14C0
  8
WHITE
 10
700.99286751499994
 20
436.55651791499992
 30
0.0
  0
VERTEX
  5
14C1
  8
WHITE
 10
696.04077826000002
 20
436.72834159000001
 30
0.0
 42
-0.4071464500000001
  0
VERTEX
  5
14C2
  8
WHITE
 10
693.53797627500001
 20
439.34685051500003
 30
0.0
  0
VERTEX
  5
14C3
  8
WHITE
 10
693.53953994499989
 20
439.495764845
 30
0.0
 42
-0.33601828
  0
VERTEX
  5
14C4
  8
WHITE
 10
695.45656136499986
 20
441.97182135000003
 30
0.0
  0
SEQEND
  5
14C5
  8
WHITE
  0
POLYLINE
  5
9F4
  8
WHITE
 66
     1
 10
0.0
 20
0.0
 30
0.0
 70
     1
  0
VERTEX
  5
14C6
  8
WHITE
 10
325.42754035000002
 20
493.08120371999991
 30
0.0
 42
0.3360183
  0
VERTEX
  5
14C7
  8
WHITE
 10
322.36743786
 20
492.41667131999992
 30
0.0
  0
VERTEX
  5
14C8
  8
WHITE
 10
322.27051990000001
 20
492.30360161499999
 30
0.0
 42
0.40714636
  0
VERTEX
  5
14C9
  8
WHITE
 10
322.504633635
 20
488.6889374399999
 30
0.0
  0
VERTEX
  5
14CA
  8
WHITE
 10
326.18770821499999
 20
485.37417015499989
 30
0.0
 42
0.21838635
  0
VERTEX
  5
14CB
  8
WHITE
 10
328.25123249000001
 20
484.72952506500002
 30
0.0
 42
0.21838635
  0
VERTEX
  5
14CC
  8
WHITE
 10
330.08604187499998
 20
485.87284111999992
 30
0.0
 42
-0.07798306
  0
VERTEX
  5
14CD
  8
WHITE
 10
337.95343150000002
 20
494.50333209000001
 30
0.0
 42
0.21151365
  0
VERTEX
  5
14CE
  8
WHITE
 10
338.59729583000001
 20
495.74630838500002
 30
0.0
 42
0.21151365
  0
VERTEX
  5
14CF
  8
WHITE
 10
338.10964789500002
 20
497.05846328500002
 30
0.0
 42
0.23359689
  0
VERTEX
  5
14D0
  8
WHITE
 10
334.2346776
 20
498.4253869449999
 30
0.0
 42
0.23359689
  0
VERTEX
  5
14D1
  8
WHITE
 10
330.79495001999999
 20
496.17768828499987
 30
0.0
 42
-0.24412195
  0
VERTEX
  5
14D2
  8
WHITE
 10
328.91506942000001
 20
493.23610666000002
 30
0.0
 42
-0.24412195
  0
VERTEX
  5
14D3
  8
WHITE
 10
325.42754035000002
 20
493.08120371999991
 30
0.0
  0
SEQEND
  5
14D4
  8
WHITE
  0
POLYLINE
  5
A04
  8
WHITE
 66
     1
 10
0.0
 20
0.0
 30
0.0
 70
     1
  0
VERTEX
  5
14D5
  8
WHITE
 10
583.34902411999985
 20
508.55500432500003
 30
0.0
 42
0.3255832
  0
VERTEX
  5
14D6
  8
WHITE
 10
607.79743173500003
 20
495.41665668500002
 30
0.0
 42
0.3255832
  0
VERTEX
  5
14D7
  8
WHITE
 10
632.24583870000004
 20
508.55500438000001
 30
0.0
 42
-0.41421356
  0
VERTEX
  5
14D8
  8
WHITE
 10
640.45021480000003
 20
514.29123291999986
 30
0.0
 42
-0.41421356
  0
VERTEX
  5
14D9
  8
WHITE
 10
646.18644403500002
 20
506.08685710999998
 30
0.0
 42
-0.33991725
  0
VERTEX
  5
14DA
  8
WHITE
 10
607.79743153499987
 20
481.50673898000002
 30
0.0
 42
-0.33991725
  0
VERTEX
  5
14DB
  8
WHITE
 10
569.40841978499986
 20
506.08685717499992
 30
0.0
 42
-0.41421356
  0
VERTEX
  5
14DC
  8
WHITE
 10
575.14464837499986
 20
514.29123291999986
 30
0.0
 42
-0.41421356
  0
VERTEX
  5
14DD
  8
WHITE
 10
583.34902411999985
 20
508.55500432500003
 30
0.0
  0
SEQEND
  5
14DE
  8
WHITE
  0
POLYLINE
  5
A0F
  8
WHITE
 66
     1
 10
0.0
 20
0.0
 30
0.0
 70
     1
  0
VERTEX
  5
14DF
  8
WHITE
 10
750.05737362499985
 20
459.77826327999992
 30
0.0
 42
-0.28733365
  0
VERTEX
  5
14E0
  8
WHITE
 10
744.94907385500005
 20
468.93788321
 30
0.0
 42
-0.28733365
  0
VERTEX
  5
14E1
  8
WHITE
 10
750.96104998999988
 20
477.53145662999992
 30
0.0
  0
VERTEX
  5
14E2
  8
WHITE
 10
769.71932562999984
 20
476.07404792999989
 30
0.0
 42
0.22382311
  0
VERTEX
  5
14E3
  8
WHITE
 10
775.23048618500002
 20
478.16641372499993
 30
0.0
 42
0.22382311
  0
VERTEX
  5
14E4
  8
WHITE
 10
777.12493036000001
 20
483.74870386999987
 30
0.0
  0
VERTEX
  5
14E5
  8
WHITE
 10
775.91773224999997
 20
494.36579172500001
 30
0.0
 42
-0.24563289
  0
VERTEX
  5
14E6
  8
WHITE
 10
793.20344629500005
 20
494.36579172500001
 30
0.0
  0
VERTEX
  5
14E7
  8
WHITE
 10
791.99624818500001
 20
483.74870386999987
 30
0.0
 42
0.22382311
  0
VERTEX
  5
14E8
  8
WHITE
 10
793.89069236
 20
478.16641372499993
 30
0.0
 42
0.22382311
  0
VERTEX
  5
14E9
  8
WHITE
 10
799.40185291499995
 20
476.07404792999989
 30
0.0
  0
VERTEX
  5
14EA
  8
WHITE
 10
818.16012832000001
 20
477.53145608
 30
0.0
 42
-0.28733365
  0
VERTEX
  5
14EB
  8
WHITE
 10
824.17210468999997
 20
468.93788321
 30
0.0
 42
-0.28733365
  0
VERTEX
  5
14EC
  8
WHITE
 10
819.06380492000005
 20
459.77826327999992
 30
0.0
 42
0.30939137
  0
VERTEX
  5
14ED
  8
WHITE
 10
799.10392512999999
 20
450.93418584
 30
0.0
 42
-0.27316815
  0
VERTEX
  5
14EE
  8
WHITE
 10
786.37558927500004
 20
445.03408732999998
 30
0.0
  0
VERTEX
  5
14EF
  8
WHITE
 10
786.37558927500004
 20
459.79436394499999
 30
0.0
  0
VERTEX
  5
14F0
  8
WHITE
 10
782.74558927500004
 20
459.79436394499999
 30
0.0
  0
VERTEX
  5
14F1
  8
WHITE
 10
782.74558986
 20
445.03408666000001
 30
0.0
 42
-0.27316813
  0
VERTEX
  5
14F2
  8
WHITE
 10
770.01725323999995
 20
450.93418442500001
 30
0.0
 42
0.30939139
  0
VERTEX
  5
14F3
  8
WHITE
 10
750.05737362499985
 20
459.77826327999992
 30
0.0
  0
SEQEND
  5
14F4
  8
WHITE
  0
POLYLINE
  5
A26
  8
DEFAULT_LAYER
 66
     1
 10
0.0
 20
0.0
 30
0.0
 70
     1
  0
VERTEX
  5
14F5
  8
DEFAULT_LAYER
 10
1045.74383171
 20
321.747016245
 30
0.0
 42
-0.13194508
  0
VERTEX
  5
14F6
  8
DEFAULT_LAYER
 10
1043.768630415
 20
321.56999380000002
 30
0.0
 42
-0.20785132
  0
VERTEX
  5
14F7
  8
DEFAULT_LAYER
 10
1041.2249275649999
 20
323.24695639499998
 30
0.0
 42
-0.20785132
  0
VERTEX
  5
14F8
  8
DEFAULT_LAYER
 10
1040.7148633649999
 20
326.25069777499999
 30
0.0
 42
-0.20785132
  0
VERTEX
  5
14F9
  8
DEFAULT_LAYER
 10
1042.562414045
 20
328.67333795500002
 30
0.0
  0
VERTEX
  5
14FA
  8
DEFAULT_LAYER
 10
1054.724494135
 20
333.02937376
 30
0.0
 42
0.41421341
  0
VERTEX
  5
14FB
  8
DEFAULT_LAYER
 10
1054.9333900900001
 20
333.47141318500002
 30
0.0
  0
VERTEX
  5
14FC
  8
DEFAULT_LAYER
 10
1054.146532275
 20
335.66832375500002
 30
0.0
 42
0.4142134900000001
  0
VERTEX
  5
14FD
  8
DEFAULT_LAYER
 10
1053.7044933449999
 20
335.87721988499999
 30
0.0
  0
VERTEX
  5
14FE
  8
DEFAULT_LAYER
 10
1042.8154611299999
 20
331.977144485
 30
0.0
 42
-0.29876814
  0
VERTEX
  5
14FF
  8
DEFAULT_LAYER
 10
1036.5255021
 20
335.10271488500001
 30
0.0
 42
-0.29876814
  0
VERTEX
  5
1500
  8
DEFAULT_LAYER
 10
1036.888360335
 20
342.11706472999998
 30
0.0
 42
-0.27016774
  0
VERTEX
  5
1501
  8
DEFAULT_LAYER
 10
1032.7421144150001
 20
345.18205191999999
 30
0.0
 42
-0.27016774
  0
VERTEX
  5
1502
  8
DEFAULT_LAYER
 10
1033.3657226150001
 20
350.30031444500003
 30
0.0
  0
VERTEX
  5
1503
  8
DEFAULT_LAYER
 10
1046.814716095
 20
355.17157717999999
 30
0.0
 42
0.41421356
  0
VERTEX
  5
1504
  8
DEFAULT_LAYER
 10
1047.0220317349999
 20
355.61436037999999
 30
0.0
  0
VERTEX
  5
1505
  8
DEFAULT_LAYER
 10
1046.2273296400001
 20
357.80844307000001
 30
0.0
 42
0.41421351
  0
VERTEX
  5
1506
  8
DEFAULT_LAYER
 10
1045.784545515
 20
358.01575844500002
 30
0.0
  0
VERTEX
  5
1507
  8
DEFAULT_LAYER
 10
1034.54459305
 20
353.94461738000001
 30
0.0
 42
-0.28744556
  0
VERTEX
  5
1508
  8
DEFAULT_LAYER
 10
1029.5346840499999
 20
357.05388757499998
 30
0.0
 42
-0.28744556
  0
VERTEX
  5
1509
  8
DEFAULT_LAYER
 10
1030.1482539650001
 20
362.91821079499999
 30
0.0
 42
-0.35618744
  0
VERTEX
  5
150A
  8
DEFAULT_LAYER
 10
1024.2458412450001
 20
365.844965575
 30
0.0
 42
-0.35618744
  0
VERTEX
  5
150B
  8
DEFAULT_LAYER
 10
1025.9283124149999
 20
372.21471086999998
 30
0.0
  0
VERTEX
  5
150C
  8
DEFAULT_LAYER
 10
1040.60240161
 20
377.52970657499998
 30
0.0
 42
0.41421347
  0
VERTEX
  5
150D
  8
DEFAULT_LAYER
 10
1040.8097171500001
 20
377.97248973500001
 30
0.0
  0
VERTEX
  5
150E
  8
DEFAULT_LAYER
 10
1040.0150150699999
 20
380.16657237999999
 30
0.0
 42
0.41421334
  0
VERTEX
  5
150F
  8
DEFAULT_LAYER
 10
1039.572232105
 20
380.37388808499998
 30
0.0
  0
VERTEX
  5
1510
  8
DEFAULT_LAYER
 10
1025.6431340250001
 20
375.32873177499999
 30
0.0
 42
-0.29787119
  0
VERTEX
  5
1511
  8
DEFAULT_LAYER
 10
1021.169767935
 20
379.78885178000002
 30
0.0
 42
-0.29787119
  0
VERTEX
  5
1512
  8
DEFAULT_LAYER
 10
1023.460720005
 20
385.67572178
 30
0.0
 42
-0.3118654
  0
VERTEX
  5
1513
  8
DEFAULT_LAYER
 10
1018.37875159
 20
389.33479503000001
 30
0.0
 42
-0.3118654
  0
VERTEX
  5
1514
  8
DEFAULT_LAYER
 10
1020.0035284000001
 20
395.38254803000001
 30
0.0
  0
VERTEX
  5
1515
  8
DEFAULT_LAYER
 10
1034.3799480749999
 20
400.53168055499992
 30
0.0
  0
VERTEX
  5
1516
  8
DEFAULT_LAYER
 10
1033.35994919
 20
403.37952618499992
 30
0.0
  0
VERTEX
  5
1517
  8
DEFAULT_LAYER
 10
1019.81635637
 20
398.52868365500001
 30
0.0
 42
-0.31266855
  0
VERTEX
  5
1518
  8
DEFAULT_LAYER
 10
1015.254729675
 20
402.91066510000002
 30
0.0
 42
-0.31266855
  0
VERTEX
  5
1519
  8
DEFAULT_LAYER
 10
1017.75675591
 20
408.72014614
 30
0.0
 42
-0.37836481
  0
VERTEX
  5
151A
  8
DEFAULT_LAYER
 10
1011.9704867950001
 20
412.68245483999999
 30
0.0
 42
-0.37836481
  0
VERTEX
  5
151B
  8
DEFAULT_LAYER
 10
1015.187168345
 20
418.91412846999992
 30
0.0
  0
VERTEX
  5
151C
  8
DEFAULT_LAYER
 10
1028.3380153149999
 20
422.40262069999989
 30
0.0
 42
0.41421336
  0
VERTEX
  5
151D
  8
DEFAULT_LAYER
 10
1028.5835312300001
 20
422.82541889999999
 30
0.0
  0
VERTEX
  5
151E
  8
DEFAULT_LAYER
 10
1027.985203515
 20
425.08098163
 30
0.0
 42
0.41421334
  0
VERTEX
  5
151F
  8
DEFAULT_LAYER
 10
1027.562405315
 20
425.32649754499988
 30
0.0
  0
VERTEX
  5
1520
  8
DEFAULT_LAYER
 10
1014.4115583400001
 20
421.838006065
 30
0.0
 42
-0.37409757
  0
VERTEX
  5
1521
  8
DEFAULT_LAYER
 10
1008.63421419
 20
426.64295439
 30
0.0
 42
-0.37409757
  0
VERTEX
  5
1522
  8
DEFAULT_LAYER
 10
1012.5931232
 20
433.02983826500002
 30
0.0
 42
-0.30188061
  0
VERTEX
  5
1523
  8
DEFAULT_LAYER
 10
1008.2253415500001
 20
437.99718854000002
 30
0.0
 42
-0.30188061
  0
VERTEX
  5
1524
  8
DEFAULT_LAYER
 10
1011.111164075
 20
443.94900426999999
 30
0.0
  0
VERTEX
  5
1525
  8
DEFAULT_LAYER
 10
1024.840342645
 20
444.55794022999987
 30
0.0
 42
0.4142134900000001
  0
VERTEX
  5
1526
  8
DEFAULT_LAYER
 10
1025.1703987799999
 20
444.91863426499998
 30
0.0
  0
VERTEX
  5
1527
  8
DEFAULT_LAYER
 10
1025.066999095
 20
447.24991369000003
 30
0.0
 42
0.4142134000000001
  0
VERTEX
  5
1528
  8
DEFAULT_LAYER
 10
1024.7063057600001
 20
447.57996881499992
 30
0.0
  0
VERTEX
  5
1529
  8
DEFAULT_LAYER
 10
1011.77627522
 20
447.00647674499999
 30
0.0
 42
-0.23495478
  0
VERTEX
  5
152A
  8
DEFAULT_LAYER
 10
1008.3799679
 20
452.21347690499999
 30
0.0
 42
-0.23495478
  0
VERTEX
  5
152B
  8
DEFAULT_LAYER
 10
1010.48312206
 20
458.06364739999998
 30
0.0
 42
-0.32048065
  0
VERTEX
  5
152C
  8
DEFAULT_LAYER
 10
1008.93331625
 20
466.57238255499988
 30
0.0
 42
-0.27698359
  0
VERTEX
  5
152D
  8
DEFAULT_LAYER
 10
1009.228860415
 20
466.77037867000001
 30
0.0
  0
VERTEX
  5
152E
  8
DEFAULT_LAYER
 10
1024.7454164149999
 20
467.54449691499991
 30
0.0
 42
0.41421356
  0
VERTEX
  5
152F
  8
DEFAULT_LAYER
 10
1025.073475075
 20
467.90700945499998
 30
0.0
  0
VERTEX
  5
1530
  8
DEFAULT_LAYER
 10
1024.957198505
 20
470.23768132499993
 30
0.0
 42
0.41421351
  0
VERTEX
  5
1531
  8
DEFAULT_LAYER
 10
1024.5946875249999
 20
470.56573997999988
 30
0.0
  0
VERTEX
  5
1532
  8
DEFAULT_LAYER
 10
1009.969713165
 20
469.83610235999993
 30
0.0
 42
-0.21841509
  0
VERTEX
  5
1533
  8
DEFAULT_LAYER
 10
1006.65239281
 20
475.13257254000001
 30
0.0
 42
-0.21841509
  0
VERTEX
  5
1534
  8
DEFAULT_LAYER
 10
1008.50284904
 20
481.10191292499991
 30
0.0
 42
-0.25831569
  0
VERTEX
  5
1535
  8
DEFAULT_LAYER
 10
1007.76362562
 20
488.15153859499998
 30
0.0
 42
-0.25831569
  0
VERTEX
  5
1536
  8
DEFAULT_LAYER
 10
1013.345377215
 20
492.52048892999989
 30
0.0
  0
VERTEX
  5
1537
  8
DEFAULT_LAYER
 10
1024.6519404600001
 20
492.46269414499989
 30
0.0
 42
0.41421357
  0
VERTEX
  5
1538
  8
DEFAULT_LAYER
 10
1024.9994178899999
 20
492.80663664500003
 30
0.0
  0
VERTEX
  5
1539
  8
DEFAULT_LAYER
 10
1025.0113457
 20
495.14017814499999
 30
0.0
 42
0.4142133000000001
  0
VERTEX
  5
153A
  8
DEFAULT_LAYER
 10
1024.667403375
 20
495.48765505499989
 30
0.0
  0
VERTEX
  5
153B
  8
DEFAULT_LAYER
 10
1011.423918235
 20
495.55535165499998
 30
0.0
 42
-0.27321854
  0
VERTEX
  5
153C
  8
DEFAULT_LAYER
 10
1008.471668615
 20
500.15571914499992
 30
0.0
 42
-0.27321854
  0
VERTEX
  5
153D
  8
DEFAULT_LAYER
 10
1011.07447525
 20
504.96243830999998
 30
0.0
 42
-0.22579075
  0
VERTEX
  5
153E
  8
DEFAULT_LAYER
 10
1012.089943445
 20
514.58620450000001
 30
0.0
  0
VERTEX
  5
153F
  8
DEFAULT_LAYER
 10
1025.37329641
 20
513.48277176500005
 30
0.0
 42
0.4142134300000001
  0
VERTEX
  5
1540
  8
DEFAULT_LAYER
 10
1025.7464433800001
 20
513.79867992499999
 30
0.0
  0
VERTEX
  5
1541
  8
DEFAULT_LAYER
 10
1025.939625065
 20
516.12424115500005
 30
0.0
 42
0.41421341
  0
VERTEX
  5
1542
  8
DEFAULT_LAYER
 10
1025.6237170950001
 20
516.49738826500004
 30
0.0
  0
VERTEX
  5
1543
  8
DEFAULT_LAYER
 10
1012.638595625
 20
517.57604753999988
 30
0.0
 42
-0.27538529
  0
VERTEX
  5
1544
  8
DEFAULT_LAYER
 10
1014.50366289
 20
531.21796386000005
 30
0.0
 42
-0.25360437
  0
VERTEX
  5
1545
  8
DEFAULT_LAYER
 10
1016.207447895
 20
539.59301433999997
 30
0.0
 42
-0.28726079
  0
VERTEX
  5
1546
  8
DEFAULT_LAYER
 10
1016.556476945
 20
539.70632307000005
 30
0.0
  0
VERTEX
  5
1547
  8
DEFAULT_LAYER
 10
1028.9277278300001
 20
536.60595908499988
 30
0.0
 42
0.41421332
  0
VERTEX
  5
1548
  8
DEFAULT_LAYER
 10
1029.3471130749999
 20
536.85726098999999
 30
0.0
  0
VERTEX
  5
1549
  8
DEFAULT_LAYER
 10
1029.914387155
 20
539.12083278
 30
0.0
 42
0.41421331
  0
VERTEX
  5
154A
  8
DEFAULT_LAYER
 10
1029.6630838250001
 20
539.54021705000002
 30
0.0
  0
VERTEX
  5
154B
  8
DEFAULT_LAYER
 10
1018.439932185
 20
542.35285592000002
 30
0.0
 42
-0.26729494
  0
VERTEX
  5
154C
  8
DEFAULT_LAYER
 10
1015.24247556
 20
548.06135131999986
 30
0.0
 42
-0.26729494
  0
VERTEX
  5
154D
  8
DEFAULT_LAYER
 10
1018.5737065
 20
553.69282971500002
 30
0.0
 42
-0.21084616
  0
VERTEX
  5
154E
  8
DEFAULT_LAYER
 10
1019.926072725
 20
558.80118012499986
 30
0.0
 42
-0.21084616
  0
VERTEX
  5
154F
  8
DEFAULT_LAYER
 10
1024.611324215
 20
561.24506116999987
 30
0.0
  0
VERTEX
  5
1550
  8
DEFAULT_LAYER
 10
1062.3668118999999
 20
543.63938753499986
 30
0.0
 42
-0.41421354
  0
VERTEX
  5
1551
  8
DEFAULT_LAYER
 10
1062.534031015
 20
543.17995995499984
 30
0.0
  0
VERTEX
  5
1552
  8
DEFAULT_LAYER
 10
1051.8683529150001
 20
520.30734032999999
 30
0.0
 42
0.4142133700000001
  0
VERTEX
  5
1553
  8
DEFAULT_LAYER
 10
1052.03557146
 20
519.84791024499998
 30
0.0
  0
VERTEX
  5
1554
  8
DEFAULT_LAYER
 10
1054.1505051300001
 20
518.86170050999999
 30
0.0
 42
0.41421357
  0
VERTEX
  5
1555
  8
DEFAULT_LAYER
 10
1054.609933855
 20
519.02891889
 30
0.0
  0
VERTEX
  5
1556
  8
DEFAULT_LAYER
 10
1065.2756117500001
 20
541.90153903500004
 30
0.0
 42
-0.41421356
  0
VERTEX
  5
1557
  8
DEFAULT_LAYER
 10
1065.735041075
 20
542.06875645499986
 30
0.0
  0
VERTEX
  5
1558
  8
DEFAULT_LAYER
 10
1102.9422117700001
 20
524.71876917500003
 30
0.0
 42
-0.17253484
  0
VERTEX
  5
1559
  8
DEFAULT_LAYER
 10
1078.448927095
 20
497.73418990999988
 30
0.0
 42
-0.28947149
  0
VERTEX
  5
155A
  8
DEFAULT_LAYER
 10
1078.7719083300001
 20
493.15700543999992
 30
0.0
 42
-0.28947149
  0
VERTEX
  5
155B
  8
DEFAULT_LAYER
 10
1074.77662433
 20
490.90031794499993
 30
0.0
  0
VERTEX
  5
155C
  8
DEFAULT_LAYER
 10
1060.47929026
 20
494.08545452999988
 30
0.0
  0
VERTEX
  5
155D
  8
DEFAULT_LAYER
 10
1070.2440746249999
 20
487.94941416500001
 30
0.0
 42
-0.21041585
  0
VERTEX
  5
155E
  8
DEFAULT_LAYER
 10
1071.1245878950001
 20
484.1681337849999
 30
0.0
 42
-0.21041585
  0
VERTEX
  5
155F
  8
DEFAULT_LAYER
 10
1068.9299026000001
 20
480.96551959999999
 30
0.0
  0
VERTEX
  5
1560
  8
DEFAULT_LAYER
 10
1061.7264078749999
 20
479.57662219000002
 30
0.0
 42
0.33041263
  0
VERTEX
  5
1561
  8
DEFAULT_LAYER
 10
1058.53215849
 20
477.2240663899999
 30
0.0
 42
0.33041263
  0
VERTEX
  5
1562
  8
DEFAULT_LAYER
 10
1059.8569440450001
 20
473.48472225500001
 30
0.0
  0
VERTEX
  5
1563
  8
DEFAULT_LAYER
 10
1068.8475528900001
 20
472.45762581999992
 30
0.0
 42
-0.36646759
  0
VERTEX
  5
1564
  8
DEFAULT_LAYER
 10
1073.749385005
 20
468.72940780499988
 30
0.0
 42
-0.36646759
  0
VERTEX
  5
1565
  8
DEFAULT_LAYER
 10
1070.880858275
 20
463.279717425
 30
0.0
 42
-0.2485496
  0
VERTEX
  5
1566
  8
DEFAULT_LAYER
 10
1054.18446604
 20
461.342184105
 30
0.0
 42
0.1213568
  0
VERTEX
  5
1567
  8
DEFAULT_LAYER
 10
1070.0616081149999
 20
454.25508019
 30
0.0
 42
-0.38816145
  0
VERTEX
  5
1568
  8
DEFAULT_LAYER
 10
1075.5121416249999
 20
448.83744093000001
 30
0.0
 42
-0.38816145
  0
VERTEX
  5
1569
  8
DEFAULT_LAYER
 10
1070.6048914200001
 20
442.92321794999992
 30
0.0
 42
-0.15338943
  0
VERTEX
  5
156A
  8
DEFAULT_LAYER
 10
1050.7504921300001
 20
446.16741868000003
 30
0.0
 42
0.09916854
  0
VERTEX
  5
156B
  8
DEFAULT_LAYER
 10
1073.342031145
 20
430.56833996500001
 30
0.0
 42
-0.27917739
  0
VERTEX
  5
156C
  8
DEFAULT_LAYER
 10
1075.4783859449999
 20
424.84236186499987
 30
0.0
 42
-0.27917739
  0
VERTEX
  5
156D
  8
DEFAULT_LAYER
 10
1071.3942343250001
 20
420.29587531499988
 30
0.0
 42
-0.19590511
  0
VERTEX
  5
156E
  8
DEFAULT_LAYER
 10
1052.4995659799999
 20
421.54366265499988
 30
0.0
 42
0.24253244
  0
VERTEX
  5
156F
  8
DEFAULT_LAYER
 10
1072.3751145399999
 20
411.73533054500001
 30
0.0
 42
-0.31094773
  0
VERTEX
  5
1570
  8
DEFAULT_LAYER
 10
1076.459165275
 20
406.69597253000001
 30
0.0
 42
-0.31094773
  0
VERTEX
  5
1571
  8
DEFAULT_LAYER
 10
1073.209108795
 20
401.08244142000001
 30
0.0
 42
-0.17488267
  0
VERTEX
  5
1572
  8
DEFAULT_LAYER
 10
1059.8176580750001
 20
405.05146146999988
 30
0.0
 42
0.21518955
  0
VERTEX
  5
1573
  8
DEFAULT_LAYER
 10
1078.832994995
 20
392.49584268500001
 30
0.0
 42
-0.25565323
  0
VERTEX
  5
1574
  8
DEFAULT_LAYER
 10
1083.920772085
 20
387.69842613999998
 30
0.0
 42
-0.25565323
  0
VERTEX
  5
1575
  8
DEFAULT_LAYER
 10
1082.624787
 20
380.82666405999998
 30
0.0
 42
-0.21111127
  0
VERTEX
  5
1576
  8
DEFAULT_LAYER
 10
1074.9038860400001
 20
381.51490926499991
 30
0.0
 42
0.38486165
  0
VERTEX
  5
1577
  8
DEFAULT_LAYER
 10
1070.1274269600001
 20
378.80607477000001
 30
0.0
 42
0.38486165
  0
VERTEX
  5
1578
  8
DEFAULT_LAYER
 10
1072.3396329300001
 20
373.78029157499998
 30
0.0
 42
-0.23841843
  0
VERTEX
  5
1579
  8
DEFAULT_LAYER
 10
1081.4925035199999
 20
374.33317771999998
 30
0.0
  0
VERTEX
  5
157A
  8
DEFAULT_LAYER
 10
1081.6533726749999
 20
374.27334856499999
 30
0.0
  0
VERTEX
  5
157B
  8
DEFAULT_LAYER
 10
1081.8187877749999
 20
374.22787153500002
 30
0.0
  0
VERTEX
  5
157C
  8
DEFAULT_LAYER
 10
1081.9875747250001
 20
374.192739625
 30
0.0
  0
VERTEX
  5
157D
  8
DEFAULT_LAYER
 10
1082.158559445
 20
374.16394582499998
 30
0.0
  0
VERTEX
  5
157E
  8
DEFAULT_LAYER
 10
1082.50242581
 20
374.10934456000001
 30
0.0
  0
VERTEX
  5
157F
  8
DEFAULT_LAYER
 10
1082.672959275
 20
374.07552307999998
 30
0.0
  0
VERTEX
  5
1580
  8
DEFAULT_LAYER
 10
1082.8409941499999
 20
374.0320117
 30
0.0
 42
-0.25333105
  0
VERTEX
  5
1581
  8
DEFAULT_LAYER
 10
1089.4397509800001
 20
367.41960452000001
 30
0.0
 42
-0.25333105
  0
VERTEX
  5
1582
  8
DEFAULT_LAYER
 10
1087.50992367
 20
358.27940100500001
 30
0.0
 42
-0.20397294
  0
VERTEX
  5
1583
  8
DEFAULT_LAYER
 10
1084.6590234749999
 20
357.63599479499999
 30
0.0
 42
-0.20397294
  0
VERTEX
  5
1584
  8
DEFAULT_LAYER
 10
1082.219005965
 20
359.24469553
 30
0.0
 42
0.2729992
  0
VERTEX
  5
1585
  8
DEFAULT_LAYER
 10
1079.05894741
 20
360.78014876499998
 30
0.0
 42
0.22072617
  0
VERTEX
  5
1586
  8
DEFAULT_LAYER
 10
1074.3177774000001
 20
358.09569019499997
 30
0.0
 42
0.22072617
  0
VERTEX
  5
1587
  8
DEFAULT_LAYER
 10
1073.3068469499999
 20
352.74190363500003
 30
0.0
 42
0.22072617
  0
VERTEX
  5
1588
  8
DEFAULT_LAYER
 10
1076.7426784700001
 20
348.513420145
 30
0.0
 42
0.22072617
  0
VERTEX
  5
1589
  8
DEFAULT_LAYER
 10
1082.1900398499999
 20
348.40728388500003
 30
0.0
 42
-0.24116767
  0
VERTEX
  5
158A
  8
DEFAULT_LAYER
 10
1085.5876174350001
 20
351.759216095
 30
0.0
 42
-0.24116767
  0
VERTEX
  5
158B
  8
DEFAULT_LAYER
 10
1090.293188245
 20
350.96135458499998
 30
0.0
 42
-0.20181239
  0
VERTEX
  5
158C
  8
DEFAULT_LAYER
 10
1094.073055955
 20
343.80999001999999
 30
0.0
 42
-0.20181239
  0
VERTEX
  5
158D
  8
DEFAULT_LAYER
 10
1091.602995465
 20
336.10750863499999
 30
0.0
 42
-0.21691112
  0
VERTEX
  5
158E
  8
DEFAULT_LAYER
 10
1089.65450139
 20
335.20208398
 30
0.0
 42
-0.21691112
  0
VERTEX
  5
158F
  8
DEFAULT_LAYER
 10
1087.69213661
 20
336.07704286000001
 30
0.0
 42
0.37826223
  0
VERTEX
  5
1590
  8
DEFAULT_LAYER
 10
1080.2261462700001
 20
339.20263052500002
 30
0.0
 42
0.37826223
  0
VERTEX
  5
1591
  8
DEFAULT_LAYER
 10
1076.199138665
 20
332.18169612999998
 30
0.0
 42
0.2213161
  0
VERTEX
  5
1592
  8
DEFAULT_LAYER
 10
1077.0681037100001
 20
331.00995885999998
 30
0.0
 42
0.2213161
  0
VERTEX
  5
1593
  8
DEFAULT_LAYER
 10
1078.52413862
 20
330.92034468000003
 30
0.0
 42
-0.28658074
  0
VERTEX
  5
1594
  8
DEFAULT_LAYER
 10
1089.74883828
 20
328.83068257999997
 30
0.0
 42
-0.2293995
  0
VERTEX
  5
1595
  8
DEFAULT_LAYER
 10
1095.0141193300001
 20
312.09135670000001
 30
0.0
 42
-0.24315452
  0
VERTEX
  5
1596
  8
DEFAULT_LAYER
 10
1094.08753381
 20
310.80246699499997
 30
0.0
 42
-0.24315452
  0
VERTEX
  5
1597
  8
DEFAULT_LAYER
 10
1092.5001813900001
 20
310.812952295
 30
0.0
 42
0.19867312
  0
VERTEX
  5
1598
  8
DEFAULT_LAYER
 10
1081.99519627
 20
311.77598764499999
 30
0.0
 42
0.33760796
  0
VERTEX
  5
1599
  8
DEFAULT_LAYER
 10
1079.86115462
 20
305.03801621500003
 30
0.0
 42
0.33760796
  0
VERTEX
  5
159A
  8
DEFAULT_LAYER
 10
1085.7918619699999
 20
301.19339686000001
 30
0.0
 42
-0.27225696
  0
VERTEX
  5
159B
  8
DEFAULT_LAYER
 10
1090.1957024000001
 20
302.58387752499999
 30
0.0
 42
-0.27225696
  0
VERTEX
  5
159C
  8
DEFAULT_LAYER
 10
1093.55129453
 20
299.41098456999998
 30
0.0
 42
-0.3017982799999999
  0
VERTEX
  5
159D
  8
DEFAULT_LAYER
 10
1094.67156991
 20
291.54510906000002
 30
0.0
 42
-0.24092271
  0
VERTEX
  5
159E
  8
DEFAULT_LAYER
 10
1094.2056508999999
 20
280.74398516999997
 30
0.0
 42
-0.12346152
  0
VERTEX
  5
159F
  8
DEFAULT_LAYER
 10
1087.4968561749999
 20
282.35300606499999
 30
0.0
 42
0.24160801
  0
VERTEX
  5
15A0
  8
DEFAULT_LAYER
 10
1084.8708135899999
 20
282.02769066500002
 30
0.0
 42
0.24160801
  0
VERTEX
  5
15A1
  8
DEFAULT_LAYER
 10
1083.6038601749999
 20
279.70459814999998
 30
0.0
 42
0.24160801
  0
VERTEX
  5
15A2
  8
DEFAULT_LAYER
 10
1084.7523867
 20
277.32073226
 30
0.0
 42
0.24160801
  0
VERTEX
  5
15A3
  8
DEFAULT_LAYER
 10
1087.3587464750001
 20
276.86377031500001
 30
0.0
 42
-0.21014577
  0
VERTEX
  5
15A4
  8
DEFAULT_LAYER
 10
1090.177684815
 20
278.49820411000002
 30
0.0
 42
-0.21014577
  0
VERTEX
  5
15A5
  8
DEFAULT_LAYER
 10
1093.28765329
 20
277.52563967999998
 30
0.0
 42
-0.27450104
  0
VERTEX
  5
15A6
  8
DEFAULT_LAYER
 10
1094.902065025
 20
259.90992412499997
 30
0.0
 42
-0.31442871
  0
VERTEX
  5
15A7
  8
DEFAULT_LAYER
 10
1093.3121211
 20
258.93332365499998
 30
0.0
 42
-0.31442871
  0
VERTEX
  5
15A8
  8
DEFAULT_LAYER
 10
1091.846958005
 20
260.088731655
 30
0.0
 42
0.2322463
  0
VERTEX
  5
15A9
  8
DEFAULT_LAYER
 10
1090.808196445
 20
261.20337834999998
 30
0.0
 42
0.23126311
  0
VERTEX
  5
15AA
  8
DEFAULT_LAYER
 10
1087.0925752149999
 20
260.86689401500001
 30
0.0
 42
0.23126311
  0
VERTEX
  5
15AB
  8
DEFAULT_LAYER
 10
1085.0748673099999
 20
257.728754815
 30
0.0
 42
0.23126311
  0
VERTEX
  5
15AC
  8
DEFAULT_LAYER
 10
1086.3108099200001
 20
254.20859733500001
 30
0.0
 42
0.23126311
  0
VERTEX
  5
15AD
  8
DEFAULT_LAYER
 10
1089.847439615
 20
253.020610065
 30
0.0
 42
-0.266591
  0
VERTEX
  5
15AE
  8
DEFAULT_LAYER
 10
1091.4387958249999
 20
252.36536817999999
 30
0.0
 42
-0.2711183099999999
  0
VERTEX
  5
15AF
  8
DEFAULT_LAYER
 10
1093.7383232899999
 20
234.72560766000001
 30
0.0
 42
-0.28617962
  0
VERTEX
  5
15B0
  8
DEFAULT_LAYER
 10
1091.8042153900001
 20
233.49645277499999
 30
0.0
 42
-0.28617962
  0
VERTEX
  5
15B1
  8
DEFAULT_LAYER
 10
1089.849096725
 20
234.69190502999999
 30
0.0
 42
0.25334925
  0
VERTEX
  5
15B2
  8
DEFAULT_LAYER
 10
1086.711976155
 20
235.50090535999999
 30
0.0
 42
0.25334925
  0
VERTEX
  5
15B3
  8
DEFAULT_LAYER
 10
1084.3198089049999
 20
233.31606120500001
 30
0.0
 42
0.25334925
  0
VERTEX
  5
15B4
  8
DEFAULT_LAYER
 10
1084.84187623
 20
230.11864758999999
 30
0.0
 42
0.25334925
  0
VERTEX
  5
15B5
  8
DEFAULT_LAYER
 10
1087.8047549
 20
228.80816282999999
 30
0.0
 42
-0.26954146
  0
VERTEX
  5
15B6
  8
DEFAULT_LAYER
 10
1093.509356025
 20
229.79448155
 30
0.0
 42
-0.26972748
  0
VERTEX
  5
15B7
  8
DEFAULT_LAYER
 10
1094.5309083699999
 20
209.49072663999999
 30
0.0
 42
-0.34746269
  0
VERTEX
  5
15B8
  8
DEFAULT_LAYER
 10
1089.56127866
 20
211.58020070000001
 30
0.0
 42
0.22405629
  0
VERTEX
  5
15B9
  8
DEFAULT_LAYER
 10
1086.925965335
 20
211.66095916
 30
0.0
 42
0.22405629
  0
VERTEX
  5
15BA
  8
DEFAULT_LAYER
 10
1085.18792538
 20
209.678380285
 30
0.0
 42
0.22405629
  0
VERTEX
  5
15BB
  8
DEFAULT_LAYER
 10
1085.612912525
 20
207.07630653499999
 30
0.0
 42
0.22405629
  0
VERTEX
  5
15BC
  8
DEFAULT_LAYER
 10
1087.891423695
 20
205.749735835
 30
0.0
 42
-0.26195317
  0
VERTEX
  5
15BD
  8
DEFAULT_LAYER
 10
1096.02587189
 20
203.32398748
 30
0.0
 42
-0.2321605
  0
VERTEX
  5
15BE
  8
DEFAULT_LAYER
 10
1092.808162735
 20
186.35824070999999
 30
0.0
 42
-0.31056151
  0
VERTEX
  5
15BF
  8
DEFAULT_LAYER
 10
1090.5144051249999
 20
185.35295274500001
 30
0.0
 42
-0.31056151
  0
VERTEX
  5
15C0
  8
DEFAULT_LAYER
 10
1088.75422415
 20
187.13443795000001
 30
0.0
 42
0.22510363
  0
VERTEX
  5
15C1
  8
DEFAULT_LAYER
 10
1086.7828192049999
 20
187.40673171500001
 30
0.0
 42
0.22510363
  0
VERTEX
  5
15C2
  8
DEFAULT_LAYER
 10
1085.3244999850001
 20
186.052521095
 30
0.0
 42
0.22510363
  0
VERTEX
  5
15C3
  8
DEFAULT_LAYER
 10
1085.4503012299999
 20
184.06638027
 30
0.0
 42
0.22510363
  0
VERTEX
  5
15C4
  8
DEFAULT_LAYER
 10
1087.0678313000001
 20
182.90699158499999
 30
0.0
 42
-0.2124107
  0
VERTEX
  5
15C5
  8
DEFAULT_LAYER
 10
1089.9607959049999
 20
182.671454845
 30
0.0
 42
-0.2124107
  0
VERTEX
  5
15C6
  8
DEFAULT_LAYER
 10
1091.72281752
 20
180.36494171000001
 30
0.0
 42
-0.17053374
  0
VERTEX
  5
15C7
  8
DEFAULT_LAYER
 10
1092.2870627499999
 20
160.04791441
 30
0.0
 42
-0.31779085
  0
VERTEX
  5
15C8
  8
DEFAULT_LAYER
 10
1089.038229065
 20
157.76901684000001
 30
0.0
 42
-0.31779085
  0
VERTEX
  5
15C9
  8
DEFAULT_LAYER
 10
1085.8063301
 20
160.0718679
 30
0.0
 42
0.25161656
  0
VERTEX
  5
15CA
  8
DEFAULT_LAYER
 10
1082.8965835250001
 20
160.34677311499999
 30
0.0
 42
0.25161656
  0
VERTEX
  5
15CB
  8
DEFAULT_LAYER
 10
1081.0610906300001
 20
158.072314095
 30
0.0
 42
0.25161656
  0
VERTEX
  5
15CC
  8
DEFAULT_LAYER
 10
1081.9443390700001
 20
155.28626489000001
 30
0.0
 42
0.25161656
  0
VERTEX
  5
15CD
  8
DEFAULT_LAYER
 10
1084.754993085
 20
154.48475257499999
 30
0.0
 42
-0.28889552
  0
VERTEX
  5
15CE
  8
DEFAULT_LAYER
 10
1087.23313386
 20
155.455347485
 30
0.0
 42
-0.28889552
  0
VERTEX
  5
15CF
  8
DEFAULT_LAYER
 10
1089.1774703799999
 20
153.63798962000001
 30
0.0
 42
-0.32498549
  0
VERTEX
  5
15D0
  8
DEFAULT_LAYER
 10
1086.1987728449999
 20
141.25162230999999
 30
0.0
 42
-0.22939224
  0
VERTEX
  5
15D1
  8
DEFAULT_LAYER
 10
1081.928724805
 20
137.38896417999999
 30
0.0
 42
0.37424824
  0
VERTEX
  5
15D2
  8
DEFAULT_LAYER
 10
1080.1390273699999
 20
134.76094043500001
 30
0.0
 42
0.37424824
  0
VERTEX
  5
15D3
  8
DEFAULT_LAYER
 10
1082.495123255
 20
132.62591362000001
 30
0.0
 42
-0.32263773
  0
VERTEX
  5
15D4
  8
DEFAULT_LAYER
 10
1081.60116911
 20
119.892028635
 30
0.0
 42
0.34521689
  0
VERTEX
  5
15D5
  8
DEFAULT_LAYER
 10
1077.25805182
 20
117.00214307
 30
0.0
 42
0.34521689
  0
VERTEX
  5
15D6
  8
DEFAULT_LAYER
 10
1079.0270099300001
 20
112.09450705
 30
0.0
 42
-0.2463715
  0
VERTEX
  5
15D7
  8
DEFAULT_LAYER
 10
1075.8758882950001
 20
98.549725469999998
 30
0.0
 42
0.30448999
  0
VERTEX
  5
15D8
  8
DEFAULT_LAYER
 10
1072.2795771850001
 20
96.377716875000004
 30
0.0
 42
0.30448999
  0
VERTEX
  5
15D9
  8
DEFAULT_LAYER
 10
1072.927385645
 20
92.226642365000004
 30
0.0
 42
-0.2374019
  0
VERTEX
  5
15DA
  8
DEFAULT_LAYER
 10
1064.579380505
 20
79.600771844999997
 30
0.0
 42
-0.23056966
  0
VERTEX
  5
15DB
  8
DEFAULT_LAYER
 10
1042.21767267
 20
47.235750719999999
 30
0.0
 42
-0.22616947
  0
VERTEX
  5
15DC
  8
DEFAULT_LAYER
 10
1039.80466503
 20
51.650826225000003
 30
0.0
 42
-0.22616947
  0
VERTEX
  5
15DD
  8
DEFAULT_LAYER
 10
1041.7153654849999
 20
56.305362385000002
 30
0.0
 42
-0.36799997
  0
VERTEX
  5
15DE
  8
DEFAULT_LAYER
 10
1039.222226135
 20
58.190979425000002
 30
0.0
 42
-0.36799997
  0
VERTEX
  5
15DF
  8
DEFAULT_LAYER
 10
1040.685678115
 20
60.953152729999999
 30
0.0
  0
VERTEX
  5
15E0
  8
DEFAULT_LAYER
 10
1045.1901728949999
 20
64.854068560000002
 30
0.0
 42
-0.36246161
  0
VERTEX
  5
15E1
  8
DEFAULT_LAYER
 10
1040.158412235
 20
68.596335300000007
 30
0.0
 42
-0.36246161
  0
VERTEX
  5
15E2
  8
DEFAULT_LAYER
 10
1042.9401476749999
 20
74.216399679999995
 30
0.0
 42
0.27031004
  0
VERTEX
  5
15E3
  8
DEFAULT_LAYER
 10
1051.8390528499999
 20
80.758068699999995
 30
0.0
 42
-0.20652616
  0
VERTEX
  5
15E4
  8
DEFAULT_LAYER
 10
1048.119274595
 20
80.246444574999998
 30
0.0
 42
-0.20652616
  0
VERTEX
  5
15E5
  8
DEFAULT_LAYER
 10
1045.1948521649999
 20
82.601496075
 30
0.0
 42
-0.20652616
  0
VERTEX
  5
15E6
  8
DEFAULT_LAYER
 10
1044.90160838
 20
86.344826440000006
 30
0.0
 42
-0.20652616
  0
VERTEX
  5
15E7
  8
DEFAULT_LAYER
 10
1047.4236286299999
 20
89.126539584999989
 30
0.0
 42
0.3726985
  0
VERTEX
  5
15E8
  8
DEFAULT_LAYER
 10
1055.22351088
 20
93.527946674999995
 30
0.0
 42
-0.33989292
  0
VERTEX
  5
15E9
  8
DEFAULT_LAYER
 10
1049.1483490149999
 20
95.358863804999999
 30
0.0
 42
-0.33989292
  0
VERTEX
  5
15EA
  8
DEFAULT_LAYER
 10
1049.3544863
 20
101.7005786
 30
0.0
  0
VERTEX
  5
15EB
  8
DEFAULT_LAYER
 10
1055.4998011600001
 20
107.654996715
 30
0.0
 42
0.17381335
  0
VERTEX
  5
15EC
  8
DEFAULT_LAYER
 10
1058.9877709
 20
112.156538205
 30
0.0
 42
-0.23805202
  0
VERTEX
  5
15ED
  8
DEFAULT_LAYER
 10
1054.2096638150001
 20
112.61644688
 30
0.0
 42
-0.23805202
  0
VERTEX
  5
15EE
  8
DEFAULT_LAYER
 10
1051.741593425
 20
116.73353878499999
 30
0.0
 42
-0.26775058
  0
VERTEX
  5
15EF
  8
DEFAULT_LAYER
 10
1053.2462414449999
 20
119.843605845
 30
0.0
 42
0.12378418
  0
VERTEX
  5
15F0
  8
DEFAULT_LAYER
 10
1061.1826326949999
 20
128.75635450499999
 30
0.0
 42
-0.30825376
  0
VERTEX
  5
15F1
  8
DEFAULT_LAYER
 10
1055.66874611
 20
131.09034497499999
 30
0.0
 42
-0.30825376
  0
VERTEX
  5
15F2
  8
DEFAULT_LAYER
 10
1055.8224577399999
 20
137.07589605999999
 30
0.0
 42
0.2611345
  0
VERTEX
  5
15F3
  8
DEFAULT_LAYER
 10
1061.1444722000001
 20
145.93070057
 30
0.0
 42
0.40457282
  0
VERTEX
  5
15F4
  8
DEFAULT_LAYER
 10
1060.342575975
 20
147.54174557499999
 30
0.0
 42
0.40457282
  0
VERTEX
  5
15F5
  8
DEFAULT_LAYER
 10
1058.70592984
 20
146.79348559499999
 30
0.0
 42
-0.2135611
  0
VERTEX
  5
15F6
  8
DEFAULT_LAYER
 10
1057.1265626899999
 20
144.25074022000001
 30
0.0
 42
-0.2135611
  0
VERTEX
  5
15F7
  8
DEFAULT_LAYER
 10
1054.1781249850001
 20
143.73433919999999
 30
0.0
 42
-0.2135611
  0
VERTEX
  5
15F8
  8
DEFAULT_LAYER
 10
1051.828585535
 20
145.58896025499999
 30
0.0
 42
-0.2135611
  0
VERTEX
  5
15F9
  8
DEFAULT_LAYER
 10
1051.64617142
 20
148.57671525999999
 30
0.0
 42
0.12769691
  0
VERTEX
  5
15FA
  8
DEFAULT_LAYER
 10
1055.37284658
 20
155.891677235
 30
0.0
 42
-0.0996666
  0
VERTEX
  5
15FB
  8
DEFAULT_LAYER
 10
1063.49194382
 20
161.56990521
 30
0.0
 42
-0.34150317
  0
VERTEX
  5
15FC
  8
DEFAULT_LAYER
 10
1064.9682744449999
 20
171.769364045
 30
0.0
  0
VERTEX
  5
15FD
  8
DEFAULT_LAYER
 10
1075.2710649000001
 20
171.49719701500001
 30
0.0
 42
0.41421356
  0
VERTEX
  5
15FE
  8
DEFAULT_LAYER
 10
1075.6257889349999
 20
171.83366081
 30
0.0
  0
VERTEX
  5
15FF
  8
DEFAULT_LAYER
 10
1075.6874125100001
 20
174.166418085
 30
0.0
 42
0.41421334
  0
VERTEX
  5
1600
  8
DEFAULT_LAYER
 10
1075.3509485300001
 20
174.521141285
 30
0.0
  0
VERTEX
  5
1601
  8
DEFAULT_LAYER
 10
1064.5097320150001
 20
174.807532955
 30
0.0
 42
-0.28278913
  0
VERTEX
  5
1602
  8
DEFAULT_LAYER
 10
1060.3731453749999
 20
178.68456668499999
 30
0.0
 42
-0.28278913
  0
VERTEX
  5
1603
  8
DEFAULT_LAYER
 10
1061.9649637499999
 20
184.12597074999999
 30
0.0
 42
-0.23516037
  0
VERTEX
  5
1604
  8
DEFAULT_LAYER
 10
1060.2283728
 20
188.724341485
 30
0.0
 42
-0.23516037
  0
VERTEX
  5
1605
  8
DEFAULT_LAYER
 10
1062.85083149
 20
192.88168085500001
 30
0.0
  0
VERTEX
  5
1606
  8
DEFAULT_LAYER
 10
1074.7929790000001
 20
193.81977348999999
 30
0.0
 42
0.41421357
  0
VERTEX
  5
1607
  8
DEFAULT_LAYER
 10
1075.110558025
 20
194.19149960499999
 30
0.0
  0
VERTEX
  5
1608
  8
DEFAULT_LAYER
 10
1074.9278117250001
 20
196.51790439000001
 30
0.0
 42
0.4142135500000001
  0
VERTEX
  5
1609
  8
DEFAULT_LAYER
 10
1074.556084545
 20
196.83548377
 30
0.0
  0
VERTEX
  5
160A
  8
DEFAULT_LAYER
 10
1063.2759323099999
 20
195.94939335999999
 30
0.0
 42
-0.41235431
  0
VERTEX
  5
160B
  8
DEFAULT_LAYER
 10
1059.105444495
 20
205.76685204
 30
0.0
 42
-0.25237974
  0
VERTEX
  5
160C
  8
DEFAULT_LAYER
 10
1057.5349988749999
 20
212.50147447500001
 30
0.0
 42
-0.25237974
  0
VERTEX
  5
160D
  8
DEFAULT_LAYER
 10
1062.2979617450001
 20
217.51501815500001
 30
0.0
  0
VERTEX
  5
160E
  8
DEFAULT_LAYER
 10
1074.6869961750001
 20
218.42301598500001
 30
0.0
  0
VERTEX
  5
160F
  8
DEFAULT_LAYER
 10
1074.4658859599999
 20
221.439924545
 30
0.0
  0
VERTEX
  5
1610
  8
DEFAULT_LAYER
 10
1062.0768507099999
 20
220.53192752000001
 30
0.0
 42
-0.27388953
  0
VERTEX
  5
1611
  8
DEFAULT_LAYER
 10
1056.38338595
 20
225.28947981499999
 30
0.0
 42
-0.27388953
  0
VERTEX
  5
1612
  8
DEFAULT_LAYER
 10
1057.81829515
 20
232.56896080999999
 30
0.0
 42
-0.2927901
  0
VERTEX
  5
1613
  8
DEFAULT_LAYER
 10
1055.4691227549999
 20
236.87348603500001
 30
0.0
 42
-0.2927901
  0
VERTEX
  5
1614
  8
DEFAULT_LAYER
 10
1058.3966693750001
 20
240.80757001500001
 30
0.0
  0
VERTEX
  5
1615
  8
DEFAULT_LAYER
 10
1071.5607170650001
 20
242.71600652500001
 30
0.0
 42
0.41421331
  0
VERTEX
  5
1616
  8
DEFAULT_LAYER
 10
1071.85325369
 20
243.10774477000001
 30
0.0
  0
VERTEX
  5
1617
  8
DEFAULT_LAYER
 10
1071.5184483749999
 20
245.41717355
 30
0.0
 42
0.41421344
  0
VERTEX
  5
1618
  8
DEFAULT_LAYER
 10
1071.12670996
 20
245.70971013499999
 30
0.0
  0
VERTEX
  5
1619
  8
DEFAULT_LAYER
 10
1057.9626628799999
 20
243.80127443000001
 30
0.0
 42
-0.2997846800000001
  0
VERTEX
  5
161A
  8
DEFAULT_LAYER
 10
1053.1086746599999
 20
248.230461875
 30
0.0
 42
-0.2997846800000001
  0
VERTEX
  5
161B
  8
DEFAULT_LAYER
 10
1055.262273885
 20
254.43859411
 30
0.0
 42
-0.23834541
  0
VERTEX
  5
161C
  8
DEFAULT_LAYER
 10
1054.0351055650001
 20
259.43802219000003
 30
0.0
 42
-0.23834541
  0
VERTEX
  5
161D
  8
DEFAULT_LAYER
 10
1057.3325625299999
 20
263.39112237000001
 30
0.0
  0
VERTEX
  5
161E
  8
DEFAULT_LAYER
 10
1069.9014027000001
 20
265.33672107000001
 30
0.0
 42
0.41421313
  0
VERTEX
  5
161F
  8
DEFAULT_LAYER
 10
1070.1901626849999
 20
265.73125124000001
 30
0.0
  0
VERTEX
  5
1620
  8
DEFAULT_LAYER
 10
1069.83318844
 20
268.03735766
 30
0.0
 42
0.41421356
  0
VERTEX
  5
1621
  8
DEFAULT_LAYER
 10
1069.4386574749999
 20
268.32611774499998
 30
0.0
  0
VERTEX
  5
1622
  8
DEFAULT_LAYER
 10
1056.86981836
 20
266.38051876499998
 30
0.0
 42
-0.28710216
  0
VERTEX
  5
1623
  8
DEFAULT_LAYER
 10
1052.273149845
 20
269.87776048000001
 30
0.0
 42
-0.28710216
  0
VERTEX
  5
1624
  8
DEFAULT_LAYER
 10
1053.40887064
 20
275.54081499
 30
0.0
 42
-0.2865925
  0
VERTEX
  5
1625
  8
DEFAULT_LAYER
 10
1050.4873966
 20
280.27136762499998
 30
0.0
 42
-0.2865925
  0
VERTEX
  5
1626
  8
DEFAULT_LAYER
 10
1053.45584353
 20
284.97258729999999
 30
0.0
  0
VERTEX
  5
1627
  8
DEFAULT_LAYER
 10
1067.1465250900001
 20
287.02127978499999
 30
0.0
 42
0.41421357
  0
VERTEX
  5
1628
  8
DEFAULT_LAYER
 10
1067.4372690749999
 20
287.41435174499998
 30
0.0
  0
VERTEX
  5
1629
  8
DEFAULT_LAYER
 10
1067.091915445
 20
289.72222595
 30
0.0
 42
0.41421326
  0
VERTEX
  5
162A
  8
DEFAULT_LAYER
 10
1066.6988441000001
 20
290.012970215
 30
0.0
  0
VERTEX
  5
162B
  8
DEFAULT_LAYER
 10
1053.0081605150001
 20
287.96427495
 30
0.0
 42
-0.32480297
  0
VERTEX
  5
162C
  8
DEFAULT_LAYER
 10
1046.67061657
 20
291.92630054
 30
0.0
 42
-0.32480297
  0
VERTEX
  5
162D
  8
DEFAULT_LAYER
 10
1048.4772580450001
 20
299.17876232499998
 30
0.0
 42
-0.21850774
  0
VERTEX
  5
162E
  8
DEFAULT_LAYER
 10
1047.0604523100001
 20
304.03570029999997
 30
0.0
 42
-0.21850774
  0
VERTEX
  5
162F
  8
DEFAULT_LAYER
 10
1049.8190156749999
 20
308.276869245
 30
0.0
  0
VERTEX
  5
1630
  8
DEFAULT_LAYER
 10
1061.0676821449999
 20
310.39309183
 30
0.0
 42
0.4142135500000001
  0
VERTEX
  5
1631
  8
DEFAULT_LAYER
 10
1061.3435172
 20
310.79676511500003
 30
0.0
  0
VERTEX
  5
1632
  8
DEFAULT_LAYER
 10
1060.91206923
 20
313.09010404499998
 30
0.0
 42
0.41421356
  0
VERTEX
  5
1633
  8
DEFAULT_LAYER
 10
1060.5083967749999
 20
313.36594071500002
 30
0.0
  0
VERTEX
  5
1634
  8
DEFAULT_LAYER
 10
1049.25973146
 20
311.24971849999997
 30
0.0
 42
-0.36353799
  0
VERTEX
  5
1635
  8
DEFAULT_LAYER
 10
1043.3723539150001
 20
315.70775965000001
 30
0.0
 42
-0.30906245
  0
VERTEX
  5
1636
  8
DEFAULT_LAYER
 10
1045.74383171
 20
321.747016245
 30
0.0
  0
SEQEND
  5
1637
  8
DEFAULT_LAYER
  0
ENDSEC
  0
EOF
